  0
SECTION
  2
HEADER
  9
$ACADVER
  1
AC1015
  9
$ACADMAINTVER
 70
     6
  9
$DWGCODEPAGE
  3
ANSI_1252
  9
$INSBASE
 10
0.0
 20
0.0
 30
0.0
  9
$EXTMIN
 10
5.171969357063175
 20
0.6162204386983399
 30
0.0
  9
$EXTMAX
 10
12.02964435706317
 20
10.43156097691338
 30
0.0
  9
$LIMMIN
 10
0.0
 20
0.0
  9
$LIMMAX
 10
17.0
 20
11.0
  9
$ORTHOMODE
 70
     0
  9
$REGENMODE
 70
     1
  9
$FILLMODE
 70
     1
  9
$QTEXTMODE
 70
     0
  9
$MIRRTEXT
 70
     1
  9
$LTSCALE
 40
1.0
  9
$ATTMODE
 70
     1
  9
$TEXTSIZE
 40
5.497709949630971
  9
$TRACEWID
 40
0.05
  9
$TEXTSTYLE
  7
Standard
  9
$CLAYER
  8
0
  9
$CELTYPE
  6
ByLayer
  9
$CECOLOR
 62
   256
  9
$CELTSCALE
 40
1.0
  9
$DISPSILH
 70
     0
  9
$DIMSCALE
 40
1.0
  9
$DIMASZ
 40
0.09
  9
$DIMEXO
 40
0.05
  9
$DIMDLI
 40
0.38
  9
$DIMRND
 40
0.0
  9
$DIMDLE
 40
0.0
  9
$DIMEXE
 40
0.0625
  9
$DIMTP
 40
0.0
  9
$DIMTM
 40
0.0
  9
$DIMTXT
 40
0.1666666666666667
  9
$DIMCEN
 40
0.09
  9
$DIMTSZ
 40
0.0
  9
$DIMTOL
 70
     0
  9
$DIMLIM
 70
     0
  9
$DIMTIH
 70
     1
  9
$DIMTOH
 70
     1
  9
$DIMSE1
 70
     0
  9
$DIMSE2
 70
     0
  9
$DIMTAD
 70
     0
  9
$DIMZIN
 70
     0
  9
$DIMBLK
  1

  9
$DIMASO
 70
     1
  9
$DIMSHO
 70
     1
  9
$DIMPOST
  1

  9
$DIMAPOST
  1

  9
$DIMALT
 70
     0
  9
$DIMALTD
 70
     2
  9
$DIMALTF
 40
25.4
  9
$DIMLFAC
 40
1.0
  9
$DIMTOFL
 70
     0
  9
$DIMTVP
 40
0.0
  9
$DIMTIX
 70
     0
  9
$DIMSOXD
 70
     0
  9
$DIMSAH
 70
     0
  9
$DIMBLK1
  1

  9
$DIMBLK2
  1

  9
$DIMSTYLE
  2
Standard
  9
$DIMCLRD
 70
     0
  9
$DIMCLRE
 70
     0
  9
$DIMCLRT
 70
     0
  9
$DIMTFAC
 40
1.0
  9
$DIMGAP
 40
0.06
  9
$DIMJUST
 70
     0
  9
$DIMSD1
 70
     0
  9
$DIMSD2
 70
     0
  9
$DIMTOLJ
 70
     1
  9
$DIMTZIN
 70
     0
  9
$DIMALTZ
 70
     0
  9
$DIMALTTZ
 70
     0
  9
$DIMUPT
 70
     0
  9
$DIMDEC
 70
     3
  9
$DIMTDEC
 70
     3
  9
$DIMALTU
 70
     2
  9
$DIMALTTD
 70
     2
  9
$DIMTXSTY
  7
Standard
  9
$DIMAUNIT
 70
     0
  9
$DIMADEC
 70
     0
  9
$DIMALTRND
 40
0.0
  9
$DIMAZIN
 70
     0
  9
$DIMDSEP
 70
    46
  9
$DIMATFIT
 70
     3
  9
$DIMFRAC
 70
     0
  9
$DIMLDRBLK
  1

  9
$DIMLUNIT
 70
     2
  9
$DIMLWD
 70
    -2
  9
$DIMLWE
 70
    -2
  9
$DIMTMOVE
 70
     0
  9
$LUNITS
 70
     2
  9
$LUPREC
 70
     3
  9
$SKETCHINC
 40
0.1
  9
$FILLETRAD
 40
0.5
  9
$AUNITS
 70
     0
  9
$AUPREC
 70
     0
  9
$MENU
  1
.
  9
$ELEVATION
 40
0.0
  9
$PELEVATION
 40
0.0
  9
$THICKNESS
 40
0.0
  9
$LIMCHECK
 70
     0
  9
$CHAMFERA
 40
0.5
  9
$CHAMFERB
 40
0.5
  9
$CHAMFERC
 40
1.0
  9
$CHAMFERD
 40
0.0
  9
$SKPOLY
 70
     0
  9
$TDCREATE
 40
2453353.467125822
  9
$TDUCREATE
 40
2453353.717125822
  9
$TDUPDATE
 40
2455596.665026875
  9
$TDUUPDATE
 40
2455596.915026875
  9
$TDINDWG
 40
0.0469444329
  9
$TDUSRTIMER
 40
0.0469444329
  9
$USRTIMER
 70
     1
  9
$ANGBASE
 50
0.0
  9
$ANGDIR
 70
     0
  9
$PDMODE
 70
     0
  9
$PDSIZE
 40
-1.0
  9
$PLINEWID
 40
0.0
  9
$SPLFRAME
 70
     0
  9
$SPLINETYPE
 70
     6
  9
$SPLINESEGS
 70
     8
  9
$HANDSEED
  5
56B
  9
$SURFTAB1
 70
     6
  9
$SURFTAB2
 70
     6
  9
$SURFTYPE
 70
     6
  9
$SURFU
 70
     6
  9
$SURFV
 70
     6
  9
$UCSBASE
  2

  9
$UCSNAME
  2

  9
$UCSORG
 10
0.0
 20
0.0
 30
0.0
  9
$UCSXDIR
 10
1.0
 20
0.0
 30
0.0
  9
$UCSYDIR
 10
0.0
 20
1.0
 30
0.0
  9
$UCSORTHOREF
  2

  9
$UCSORTHOVIEW
 70
     0
  9
$UCSORGTOP
 10
0.0
 20
0.0
 30
0.0
  9
$UCSORGBOTTOM
 10
0.0
 20
0.0
 30
0.0
  9
$UCSORGLEFT
 10
0.0
 20
0.0
 30
0.0
  9
$UCSORGRIGHT
 10
0.0
 20
0.0
 30
0.0
  9
$UCSORGFRONT
 10
0.0
 20
0.0
 30
0.0
  9
$UCSORGBACK
 10
0.0
 20
0.0
 30
0.0
  9
$PUCSBASE
  2

  9
$PUCSNAME
  2

  9
$PUCSORG
 10
0.0
 20
0.0
 30
0.0
  9
$PUCSXDIR
 10
1.0
 20
0.0
 30
0.0
  9
$PUCSYDIR
 10
0.0
 20
1.0
 30
0.0
  9
$PUCSORTHOREF
  2

  9
$PUCSORTHOVIEW
 70
     0
  9
$PUCSORGTOP
 10
0.0
 20
0.0
 30
0.0
  9
$PUCSORGBOTTOM
 10
0.0
 20
0.0
 30
0.0
  9
$PUCSORGLEFT
 10
0.0
 20
0.0
 30
0.0
  9
$PUCSORGRIGHT
 10
0.0
 20
0.0
 30
0.0
  9
$PUCSORGFRONT
 10
0.0
 20
0.0
 30
0.0
  9
$PUCSORGBACK
 10
0.0
 20
0.0
 30
0.0
  9
$USERI1
 70
     0
  9
$USERI2
 70
     0
  9
$USERI3
 70
     0
  9
$USERI4
 70
     0
  9
$USERI5
 70
     0
  9
$USERR1
 40
0.0
  9
$USERR2
 40
0.0
  9
$USERR3
 40
0.0
  9
$USERR4
 40
0.0
  9
$USERR5
 40
0.0
  9
$WORLDVIEW
 70
     1
  9
$SHADEDGE
 70
     3
  9
$SHADEDIF
 70
    70
  9
$TILEMODE
 70
     1
  9
$MAXACTVP
 70
    64
  9
$PINSBASE
 10
0.0
 20
0.0
 30
0.0
  9
$PLIMCHECK
 70
     0
  9
$PEXTMIN
 10
1.000000000000000E+20
 20
1.000000000000000E+20
 30
1.000000000000000E+20
  9
$PEXTMAX
 10
-1.000000000000000E+20
 20
-1.000000000000000E+20
 30
-1.000000000000000E+20
  9
$PLIMMIN
 10
0.0
 20
0.0
  9
$PLIMMAX
 10
12.0
 20
9.0
  9
$UNITMODE
 70
     0
  9
$VISRETAIN
 70
     1
  9
$PLINEGEN
 70
     0
  9
$PSLTSCALE
 70
     1
  9
$TREEDEPTH
 70
  3020
  9
$CMLSTYLE
  2
Standard
  9
$CMLJUST
 70
     0
  9
$CMLSCALE
 40
1.0
  9
$PROXYGRAPHICS
 70
     1
  9
$MEASUREMENT
 70
     0
  9
$CELWEIGHT
370
    -1
  9
$ENDCAPS
280
     0
  9
$JOINSTYLE
280
     0
  9
$LWDISPLAY
290
     1
  9
$INSUNITS
 70
     1
  9
$HYPERLINKBASE
  1

  9
$STYLESHEET
  1

  9
$XEDIT
290
     0
  9
$CEPSNTYPE
380
     0
  9
$PSTYLEMODE
290
     1
  9
$FINGERPRINTGUID
  2
{2ABD0D5C-CBBD-4CED-8E72-533DECFF5F2C}
  9
$VERSIONGUID
  2
{FAEB1C32-E019-11D5-929B-00C0DF256EC4}
  9
$EXTNAMES
290
     1
  9
$PSVPSCALE
 40
0.0
  9
$OLESTARTUP
290
     0
  0
ENDSEC
  0
SECTION
  2
CLASSES
  0
CLASS
  1
ACDBDICTIONARYWDFLT
  2
AcDbDictionaryWithDefault
  3
ObjectDBX Classes
 90
        0
280
     0
281
     0
  0
CLASS
  1
ACDBPLACEHOLDER
  2
AcDbPlaceHolder
  3
ObjectDBX Classes
 90
        0
280
     0
281
     0
  0
CLASS
  1
LAYOUT
  2
AcDbLayout
  3
ObjectDBX Classes
 90
        0
280
     0
281
     0
  0
CLASS
  1
DICTIONARYVAR
  2
AcDbDictionaryVar
  3
ObjectDBX Classes
 90
        0
280
     0
281
     0
  0
CLASS
  1
TABLESTYLE
  2
AcDbTableStyle
  3
ObjectDBX Classes
 90
     4095
280
     0
281
     0
  0
CLASS
  1
SCALE
  2
AcDbScale
  3
ObjectDBX Classes
 90
     1153
280
     0
281
     0
  0
ENDSEC
  0
SECTION
  2
TABLES
  0
TABLE
  2
VPORT
  5
8
330
0
100
AcDbSymbolTable
 70
     2
  0
VPORT
  5
97
330
8
100
AcDbSymbolTableRecord
100
AcDbViewportTableRecord
  2
*Active
 70
     0
 10
0.0
 20
0.0
 11
1.0
 21
1.0
 12
8.88403314438035
 22
6.143782645337686
 13
0.0
 23
0.0
 14
0.5
 24
0.5
 15
0.5
 25
0.5
 16
0.0
 26
0.0
 36
1.0
 17
0.0
 27
0.0
 37
0.0
 40
13.66777699327454
 41
1.545454545454545
 42
50.0
 43
0.0
 44
0.0
 50
0.0
 51
0.0
 71
    16
 72
  2000
 73
     1
 74
     3
 75
     0
 76
     0
 77
     0
 78
     0
281
     0
 65
     0
110
0.0
120
0.0
130
0.0
111
1.0
121
0.0
131
0.0
112
0.0
122
1.0
132
0.0
 79
     0
146
0.0
  0
ENDTAB
  0
TABLE
  2
LTYPE
  5
5
330
0
100
AcDbSymbolTable
 70
     6
  0
LTYPE
  5
14
330
5
100
AcDbSymbolTableRecord
100
AcDbLinetypeTableRecord
  2
ByBlock
 70
     0
  3

 72
    65
 73
     0
 40
0.0
  0
LTYPE
  5
15
330
5
100
AcDbSymbolTableRecord
100
AcDbLinetypeTableRecord
  2
ByLayer
 70
     0
  3

 72
    65
 73
     0
 40
0.0
  0
LTYPE
  5
16
330
5
100
AcDbSymbolTableRecord
100
AcDbLinetypeTableRecord
  2
Continuous
 70
     0
  3
Solid line
 72
    65
 73
     0
 40
0.0
  0
LTYPE
  5
55B
330
5
100
AcDbSymbolTableRecord
100
AcDbLinetypeTableRecord
  2
HIDDEN
 70
     0
  3
Hidden __ __ __ __ __ __ __ __ __ __ __ __ __ __
 72
    65
 73
     2
 40
0.075
 49
0.05
 74
     4
 75
     0
340
0
 46
1.0
 50
0.0
 44
0.0
 45
0.0
 49
-0.025
 74
     4
 75
     0
340
0
 46
1.0
 50
0.0
 44
0.0
 45
0.0
  0
LTYPE
  5
55C
330
5
100
AcDbSymbolTableRecord
100
AcDbLinetypeTableRecord
  2
PHANTOM
 70
     0
  3
Phantom ______  __  __  ______  __  __  ______
 72
    65
 73
     6
 40
0.4999999999999999
 49
0.25
 74
     4
 75
     0
340
0
 46
1.0
 50
0.0
 44
0.0
 45
0.0
 49
-0.05
 74
     4
 75
     0
340
0
 46
1.0
 50
0.0
 44
0.0
 45
0.0
 49
0.05
 74
     4
 75
     0
340
0
 46
1.0
 50
0.0
 44
0.0
 45
0.0
 49
-0.05
 74
     4
 75
     0
340
0
 46
1.0
 50
0.0
 44
0.0
 45
0.0
 49
0.05
 74
     4
 75
     0
340
0
 46
1.0
 50
0.0
 44
0.0
 45
0.0
 49
-0.05
 74
     4
 75
     0
340
0
 46
1.0
 50
0.0
 44
0.0
 45
0.0
  0
LTYPE
  5
55D
330
5
100
AcDbSymbolTableRecord
100
AcDbLinetypeTableRecord
  2
CENTER
 70
     0
  3
Center ____ _ ____ _ ____ _ ____ _ ____ _ ____
 72
    65
 73
     4
 40
0.4
 49
0.25
 74
     4
 75
     0
340
0
 46
1.0
 50
0.0
 44
0.0
 45
0.0
 49
-0.05
 74
     4
 75
     0
340
0
 46
1.0
 50
0.0
 44
0.0
 45
0.0
 49
0.05
 74
     4
 75
     0
340
0
 46
1.0
 50
0.0
 44
0.0
 45
0.0
 49
-0.05
 74
     4
 75
     0
340
0
 46
1.0
 50
0.0
 44
0.0
 45
0.0
  0
LTYPE
  5
55E
330
5
100
AcDbSymbolTableRecord
100
AcDbLinetypeTableRecord
  2
CENTERX2
 70
     0
  3
Center (2x) ________  __  ________  __  _____
 72
    65
 73
     4
 40
0.7999999999999999
 49
0.5
 74
     4
 75
     0
340
0
 46
1.0
 50
0.0
 44
0.0
 45
0.0
 49
-0.1
 74
     4
 75
     0
340
0
 46
1.0
 50
0.0
 44
0.0
 45
0.0
 49
0.1
 74
     4
 75
     0
340
0
 46
1.0
 50
0.0
 44
0.0
 45
0.0
 49
-0.1
 74
     4
 75
     0
340
0
 46
1.0
 50
0.0
 44
0.0
 45
0.0
  0
LTYPE
  5
55F
330
5
100
AcDbSymbolTableRecord
100
AcDbLinetypeTableRecord
  2
DOT2
 70
     0
  3
Dot (.5x) ........................................
 72
    65
 73
     2
 40
0.025
 49
0.0
 74
     4
 75
     0
340
0
 46
1.0
 50
0.0
 44
0.0
 45
0.0
 49
-0.025
 74
     4
 75
     0
340
0
 46
1.0
 50
0.0
 44
0.0
 45
0.0
  0
ENDTAB
  0
TABLE
  2
LAYER
  5
2
330
0
100
AcDbSymbolTable
 70
     3
  0
LAYER
  5
10
330
2
100
AcDbSymbolTableRecord
100
AcDbLayerTableRecord
  2
0
 70
     4
 62
     7
  6
Continuous
370
    -3
390
F
  0
LAYER
  5
44
330
2
100
AcDbSymbolTableRecord
100
AcDbLayerTableRecord
  2
SLD-0
 70
     0
 62
     7
  6
Continuous
370
    -3
390
F
  0
LAYER
  5
45
330
2
100
AcDbSymbolTableRecord
100
AcDbLayerTableRecord
  2
FORMAT
 70
     0
 62
     7
  6
Continuous
370
    -3
390
F
  0
ENDTAB
  0
TABLE
  2
STYLE
  5
3
330
0
100
AcDbSymbolTable
 70
     2
  0
STYLE
  5
11
330
3
100
AcDbSymbolTableRecord
100
AcDbTextStyleTableRecord
  2
Standard
 70
     0
 40
0.0
 41
1.0
 50
0.0
 71
     0
 42
0.2
  3
txt
  4

  0
STYLE
  5
8C
330
3
100
AcDbSymbolTableRecord
100
AcDbTextStyleTableRecord
  2
SLDTEXTSTYLE0
 70
     0
 40
0.0
 41
0.605
 50
0.0
 71
     0
 42
0.2
  3
TXT
  4

  0
ENDTAB
  0
TABLE
  2
VIEW
  5
6
330
0
100
AcDbSymbolTable
 70
     0
  0
ENDTAB
  0
TABLE
  2
UCS
  5
7
330
0
100
AcDbSymbolTable
 70
     0
  0
ENDTAB
  0
TABLE
  2
APPID
  5
9
330
0
100
AcDbSymbolTable
 70
     1
  0
APPID
  5
12
330
9
100
AcDbSymbolTableRecord
100
AcDbRegAppTableRecord
  2
ACAD
 70
     0
  0
ENDTAB
  0
TABLE
  2
DIMSTYLE
  5
A
330
0
100
AcDbSymbolTable
 70
     1
100
AcDbDimStyleTable
  0
DIMSTYLE
105
27
330
A
100
AcDbSymbolTableRecord
100
AcDbDimStyleTableRecord
  2
Standard
 70
     0
340
11
  0
ENDTAB
  0
TABLE
  2
BLOCK_RECORD
  5
1
330
0
100
AcDbSymbolTable
 70
     1
  0
BLOCK_RECORD
  5
1F
102
{ACAD_XDICTIONARY
360
565
102
}
330
1
100
AcDbSymbolTableRecord
100
AcDbBlockTableRecord
  2
*Model_Space
340
22
  0
BLOCK_RECORD
  5
73
330
1
100
AcDbSymbolTableRecord
100
AcDbBlockTableRecord
  2
*Paper_Space
340
74
  0
BLOCK_RECORD
  5
23
330
1
100
AcDbSymbolTableRecord
100
AcDbBlockTableRecord
  2
*Paper_Space0
340
26
  0
ENDTAB
  0
ENDSEC
  0
SECTION
  2
BLOCKS
  0
BLOCK
  5
20
330
1F
100
AcDbEntity
  8
0
100
AcDbBlockBegin
  2
*Model_Space
 70
     0
 10
0.0
 20
0.0
 30
0.0
  3
*Model_Space
  1

  0
ENDBLK
  5
21
330
1F
100
AcDbEntity
  8
0
100
AcDbBlockEnd
  0
BLOCK
  5
75
330
73
100
AcDbEntity
 67
     1
  8
0
100
AcDbBlockBegin
  2
*Paper_Space
 70
     0
 10
0.0
 20
0.0
 30
0.0
  3
*Paper_Space
  1

  0
ENDBLK
  5
76
330
73
100
AcDbEntity
 67
     1
  8
0
100
AcDbBlockEnd
  0
BLOCK
  5
563
330
23
100
AcDbEntity
  8
0
100
AcDbBlockBegin
  2
*Paper_Space0
 70
     0
 10
0.0
 20
0.0
 30
0.0
  3
*Paper_Space0
  1

  0
ENDBLK
  5
564
330
23
100
AcDbEntity
  8
0
100
AcDbBlockEnd
  0
ENDSEC
  0
SECTION
  2
ENTITIES
  0
ARC
  5
8F
330
1F
100
AcDbEntity
  8
0
  6
Continuous
 62
     7
370
    30
100
AcDbCircle
 10
9.608111709518065
 20
4.517560976913368
 30
0.0
 40
0.0149999999999997
100
AcDbArc
 50
229.8738546678261
 51
270.0000000000008
  0
ARC
  5
90
330
1F
100
AcDbEntity
  8
0
  6
Continuous
 62
     7
370
    30
100
AcDbCircle
 10
9.233111709518065
 20
4.517560976913368
 30
0.0
 40
0.0150000000000001
100
AcDbArc
 50
270.0000000000008
 51
310.1261453321807
  0
ARC
  5
91
330
1F
100
AcDbEntity
  8
0
  6
Continuous
 62
     7
370
    30
100
AcDbCircle
 10
9.493111709518065
 20
4.381120500722893
 30
0.0
 40
0.1634404761904771
100
AcDbArc
 50
49.8738546678232
 51
87.03404285723919
  0
ARC
  5
528
330
1F
100
AcDbEntity
  8
0
  6
Continuous
 62
     7
370
    30
100
AcDbCircle
 10
9.348111709518065
 20
4.381120500722893
 30
0.0
 40
0.1634404761904767
100
AcDbArc
 50
92.96595714276704
 51
130.1261453321763
  0
ARC
  5
529
330
1F
100
AcDbEntity
  8
0
  6
Continuous
 62
     7
370
    30
100
AcDbCircle
 10
8.358111709518065
 20
4.517560976913366
 30
0.0
 40
0.0149999999999997
100
AcDbArc
 50
229.8738546678283
 51
270.0000000000008
  0
ARC
  5
94
330
1F
100
AcDbEntity
  8
0
  6
Continuous
 62
     7
370
    30
100
AcDbCircle
 10
7.983111709518065
 20
4.517560976913366
 30
0.0
 40
0.0150000000000002
100
AcDbArc
 50
270.0000000000008
 51
310.1261453321759
  0
ARC
  5
95
330
1F
100
AcDbEntity
  8
0
  6
Continuous
 62
     7
370
    30
100
AcDbCircle
 10
8.243111709518065
 20
4.38112050072289
 30
0.0
 40
0.1634404761904764
100
AcDbArc
 50
49.873854667823
 51
87.03404285723607
  0
ARC
  5
96
330
1F
100
AcDbEntity
  8
0
  6
Continuous
 62
     7
370
    30
100
AcDbCircle
 10
8.098111709518065
 20
4.38112050072289
 30
0.0
 40
0.1634404761904762
100
AcDbArc
 50
92.96595714276394
 51
130.1261453321768
  0
LINE
  5
52A
330
1F
100
AcDbEntity
  8
0
  6
Continuous
 62
     7
370
    30
100
AcDbLine
 10
9.234111707262006
 20
2.663560988768126
 30
0.0
 11
9.234111707262006
 21
2.61529460967879
 31
0.0
  0
LINE
  5
52B
330
1F
100
AcDbEntity
  8
0
  6
Continuous
 62
     7
370
    30
100
AcDbLine
 10
9.607111715000753
 20
2.61529460967879
 30
0.0
 11
9.607111715000753
 21
2.663560988768126
 31
0.0
  0
ARC
  5
52C
330
1F
100
AcDbEntity
  8
0
  6
Continuous
 62
     7
370
    30
100
AcDbCircle
 10
9.254111709518062
 20
2.615294611881749
 30
0.0
 40
0.0200000000000007
100
AcDbArc
 50
180.0
 51
241.8571552446976
  0
ARC
  5
52D
330
1F
100
AcDbEntity
  8
0
  6
Continuous
 62
     7
370
    30
100
AcDbCircle
 10
9.587111709518062
 20
2.61529461188175
 30
0.0
 40
0.0199999999999996
100
AcDbArc
 50
298.1428447553007
 51
0.0
  0
ARC
  5
52E
330
1F
100
AcDbEntity
  8
0
  6
Continuous
 62
     7
370
    30
100
AcDbCircle
 10
9.420611709518061
 20
2.926560976913373
 30
0.0
 40
0.3730000000000003
100
AcDbArc
 50
285.0264975674248
 51
298.1428447553024
  0
ARC
  5
52F
330
1F
100
AcDbEntity
  8
0
  6
Continuous
 62
     7
370
    30
100
AcDbCircle
 10
9.420611709518061
 20
2.926560976913373
 30
0.0
 40
0.3730000000000008
100
AcDbArc
 50
241.8571552446994
 51
254.9735024325771
  0
LINE
  5
530
330
1F
100
AcDbEntity
  8
0
  6
Continuous
 62
     7
370
    30
100
AcDbLine
 10
9.515611692016828
 20
4.885783220800606
 30
0.0
 11
9.491111675043113
 21
4.899928324061833
 31
0.0
  0
LINE
  5
531
330
1F
100
AcDbEntity
  8
0
  6
Continuous
 62
     7
370
    30
100
AcDbLine
 10
9.350111710553403
 20
4.899928324061833
 30
0.0
 11
9.325611693579688
 21
4.885783220800606
 31
0.0
  0
LINE
  5
532
330
1F
100
AcDbEntity
  8
0
  6
Continuous
 62
     7
370
    30
100
AcDbLine
 10
9.515611692016828
 20
4.941338739018518
 30
0.0
 11
9.491111675043113
 21
4.955483842279746
 31
0.0
  0
LINE
  5
533
330
1F
100
AcDbEntity
  8
0
  6
Continuous
 62
     7
370
    30
100
AcDbLine
 10
9.350111710553403
 20
4.955483842279746
 30
0.0
 11
9.325611693579688
 21
4.941338739018518
 31
0.0
  0
LINE
  5
534
330
1F
100
AcDbEntity
  8
0
  6
Continuous
 62
     7
370
    30
100
AcDbLine
 10
9.325611693579688
 20
4.885783220800606
 30
0.0
 11
9.350111710553403
 21
4.871638117539379
 31
0.0
  0
LINE
  5
535
330
1F
100
AcDbEntity
  8
0
  6
Continuous
 62
     7
370
    30
100
AcDbLine
 10
9.491111675043113
 20
4.871638117539379
 30
0.0
 11
9.515611692016828
 21
4.885783220800606
 31
0.0
  0
LINE
  5
536
330
1F
100
AcDbEntity
  8
0
  6
Continuous
 62
     7
370
    30
100
AcDbLine
 10
9.325611693579688
 20
4.941338739018518
 30
0.0
 11
9.350111710553403
 21
4.927193635757292
 31
0.0
  0
LINE
  5
537
330
1F
100
AcDbEntity
  8
0
  6
Continuous
 62
     7
370
    30
100
AcDbLine
 10
9.491111675043113
 20
4.927193635757292
 30
0.0
 11
9.515611692016828
 21
4.941338739018518
 31
0.0
  0
LINE
  5
538
330
1F
100
AcDbEntity
  8
0
  6
Continuous
 62
     7
370
    30
100
AcDbLine
 10
9.325611693579688
 20
4.663561001263982
 30
0.0
 11
9.350111710553403
 21
4.649415898002755
 31
0.0
  0
LINE
  5
539
330
1F
100
AcDbEntity
  8
0
  6
Continuous
 62
     7
370
    30
100
AcDbLine
 10
9.491111675043113
 20
4.649415898002755
 30
0.0
 11
9.515611692016828
 21
4.663561001263982
 31
0.0
  0
LINE
  5
53A
330
1F
100
AcDbEntity
  8
0
  6
Continuous
 62
     7
370
    30
100
AcDbLine
 10
9.325611693579688
 20
4.830227702582693
 30
0.0
 11
9.350111710553403
 21
4.816082599321466
 31
0.0
  0
LINE
  5
53B
330
1F
100
AcDbEntity
  8
0
  6
Continuous
 62
     7
370
    30
100
AcDbLine
 10
9.491111675043113
 20
4.816082599321466
 30
0.0
 11
9.515611692016828
 21
4.830227702582693
 31
0.0
  0
LINE
  5
53C
330
1F
100
AcDbEntity
  8
0
  6
Continuous
 62
     7
370
    30
100
AcDbLine
 10
9.515611692016828
 20
4.830227702582693
 30
0.0
 11
9.491111675043113
 21
4.844372659178948
 31
0.0
  0
LINE
  5
53D
330
1F
100
AcDbEntity
  8
0
  6
Continuous
 62
     7
370
    30
100
AcDbLine
 10
9.350111710553403
 20
4.844372659178948
 30
0.0
 11
9.325611693579688
 21
4.830227702582693
 31
0.0
  0
LINE
  5
53E
330
1F
100
AcDbEntity
  8
0
  6
Continuous
 62
     7
370
    30
100
AcDbLine
 10
9.325611693579688
 20
4.719116519481895
 30
0.0
 11
9.350111710553403
 21
4.704971416220668
 31
0.0
  0
LINE
  5
53F
330
1F
100
AcDbEntity
  8
0
  6
Continuous
 62
     7
370
    30
100
AcDbLine
 10
9.491111675043113
 20
4.704971416220668
 30
0.0
 11
9.515611692016828
 21
4.719116519481895
 31
0.0
  0
LINE
  5
540
330
1F
100
AcDbEntity
  8
0
  6
Continuous
 62
     7
370
    30
100
AcDbLine
 10
9.515611692016828
 20
4.774672037699808
 30
0.0
 11
9.491111675043113
 21
4.788817140961035
 31
0.0
  0
LINE
  5
541
330
1F
100
AcDbEntity
  8
0
  6
Continuous
 62
     7
370
    30
100
AcDbLine
 10
9.350111710553403
 20
4.788817140961035
 30
0.0
 11
9.325611693579688
 21
4.774672037699808
 31
0.0
  0
LINE
  5
542
330
1F
100
AcDbEntity
  8
0
  6
Continuous
 62
     7
370
    30
100
AcDbLine
 10
9.515611692016828
 20
4.719116519481895
 30
0.0
 11
9.491111675043113
 21
4.733261622743122
 31
0.0
  0
LINE
  5
543
330
1F
100
AcDbEntity
  8
0
  6
Continuous
 62
     7
370
    30
100
AcDbLine
 10
9.350111710553403
 20
4.733261622743122
 30
0.0
 11
9.325611693579688
 21
4.719116519481895
 31
0.0
  0
LINE
  5
544
330
1F
100
AcDbEntity
  8
0
  6
Continuous
 62
     7
370
    30
100
AcDbLine
 10
9.325611693579688
 20
4.774672037699808
 30
0.0
 11
9.350111710553403
 21
4.760526934438581
 31
0.0
  0
LINE
  5
545
330
1F
100
AcDbEntity
  8
0
  6
Continuous
 62
     7
370
    30
100
AcDbLine
 10
9.491111675043113
 20
4.760526934438581
 30
0.0
 11
9.515611692016828
 21
4.774672037699808
 31
0.0
  0
LINE
  5
546
330
1F
100
AcDbEntity
  8
0
  6
Continuous
 62
     7
370
    30
100
AcDbLine
 10
9.515611692016828
 20
4.663561001263982
 30
0.0
 11
9.491111675043113
 21
4.677706104525209
 31
0.0
  0
LINE
  5
547
330
1F
100
AcDbEntity
  8
0
  6
Continuous
 62
     7
370
    30
100
AcDbLine
 10
9.350111710553403
 20
4.677706104525209
 30
0.0
 11
9.325611693579688
 21
4.663561001263982
 31
0.0
  0
LINE
  5
548
330
1F
100
AcDbEntity
  8
0
  6
Continuous
 62
     7
370
    30
100
AcDbLine
 10
9.515611692016828
 20
4.552449818163185
 30
0.0
 11
9.491111675043113
 21
4.566594921424411
 31
0.0
  0
LINE
  5
549
330
1F
100
AcDbEntity
  8
0
  6
Continuous
 62
     7
370
    30
100
AcDbLine
 10
9.350111710553403
 20
4.566594921424411
 30
0.0
 11
9.325611693579688
 21
4.552449818163185
 31
0.0
  0
LINE
  5
54A
330
1F
100
AcDbEntity
  8
0
  6
Continuous
 62
     7
370
    30
100
AcDbLine
 10
9.515611692016828
 20
4.441338781727358
 30
0.0
 11
9.491111675043113
 21
4.455483884988586
 31
0.0
  0
LINE
  5
54B
330
1F
100
AcDbEntity
  8
0
  6
Continuous
 62
     7
370
    30
100
AcDbLine
 10
9.350111710553403
 20
4.455483884988586
 30
0.0
 11
9.325611693579688
 21
4.441338781727358
 31
0.0
  0
LINE
  5
54C
330
1F
100
AcDbEntity
  8
0
  6
Continuous
 62
     7
370
    30
100
AcDbLine
 10
9.515611692016828
 20
4.608005483046069
 30
0.0
 11
9.491111675043113
 21
4.622150439642324
 31
0.0
  0
LINE
  5
54D
330
1F
100
AcDbEntity
  8
0
  6
Continuous
 62
     7
370
    30
100
AcDbLine
 10
9.350111710553403
 20
4.622150439642324
 30
0.0
 11
9.325611693579688
 21
4.608005483046069
 31
0.0
  0
LINE
  5
BB
330
1F
100
AcDbEntity
  8
0
  6
Continuous
 62
     7
370
    30
100
AcDbLine
 10
9.325611693579688
 20
4.552449818163185
 30
0.0
 11
9.33965486468511
 21
4.544342031825024
 31
0.0
  0
LINE
  5
BC
330
1F
100
AcDbEntity
  8
0
  6
Continuous
 62
     7
370
    30
100
AcDbLine
 10
9.501568520911405
 20
4.544342031825024
 30
0.0
 11
9.515611692016828
 21
4.552449818163185
 31
0.0
  0
LINE
  5
BD
330
1F
100
AcDbEntity
  8
0
  6
Continuous
 62
     7
370
    30
100
AcDbLine
 10
9.325611693579688
 20
4.441338781727358
 30
0.0
 11
9.350111710553403
 21
4.427193678466132
 31
0.0
  0
LINE
  5
BE
330
1F
100
AcDbEntity
  8
0
  6
Continuous
 62
     7
370
    30
100
AcDbLine
 10
9.491111675043113
 20
4.427193678466132
 30
0.0
 11
9.515611692016828
 21
4.441338781727358
 31
0.0
  0
LINE
  5
BF
330
1F
100
AcDbEntity
  8
0
  6
Continuous
 62
     7
370
    30
100
AcDbLine
 10
9.325611693579688
 20
4.608005483046069
 30
0.0
 11
9.350111710553403
 21
4.593860379784843
 31
0.0
  0
LINE
  5
C0
330
1F
100
AcDbEntity
  8
0
  6
Continuous
 62
     7
370
    30
100
AcDbLine
 10
9.491111675043113
 20
4.593860379784843
 30
0.0
 11
9.515611692016828
 21
4.608005483046069
 31
0.0
  0
LINE
  5
C1
330
1F
100
AcDbEntity
  8
0
  6
Continuous
 62
     7
370
    30
100
AcDbLine
 10
9.515611692016828
 20
4.219116562190735
 30
0.0
 11
9.491111675043113
 21
4.233261592119476
 31
0.0
  0
LINE
  5
C2
330
1F
100
AcDbEntity
  8
0
  6
Continuous
 62
     7
370
    30
100
AcDbLine
 10
9.350111710553403
 20
4.233261592119476
 30
0.0
 11
9.325611693579688
 21
4.219116562190735
 31
0.0
  0
LINE
  5
C3
330
1F
100
AcDbEntity
  8
0
  6
Continuous
 62
     7
370
    30
100
AcDbLine
 10
9.515611692016828
 20
4.274672080408648
 30
0.0
 11
9.491111675043113
 21
4.288817183669875
 31
0.0
  0
LINE
  5
C4
330
1F
100
AcDbEntity
  8
0
  6
Continuous
 62
     7
370
    30
100
AcDbLine
 10
9.350111710553403
 20
4.288817183669875
 30
0.0
 11
9.325611693579688
 21
4.274672080408648
 31
0.0
  0
LINE
  5
C5
330
1F
100
AcDbEntity
  8
0
  6
Continuous
 62
     7
370
    30
100
AcDbLine
 10
9.325611693579688
 20
4.219116562190735
 30
0.0
 11
9.350111710553403
 21
4.204971458929508
 31
0.0
  0
LINE
  5
C6
330
1F
100
AcDbEntity
  8
0
  6
Continuous
 62
     7
370
    30
100
AcDbLine
 10
9.491111675043113
 20
4.204971458929508
 30
0.0
 11
9.515611692016828
 21
4.219116562190735
 31
0.0
  0
LINE
  5
C7
330
1F
100
AcDbEntity
  8
0
  6
Continuous
 62
     7
370
    30
100
AcDbLine
 10
9.515611692016828
 20
4.385783263509446
 30
0.0
 11
9.491111675043113
 21
4.3999282201057
 31
0.0
  0
LINE
  5
C8
330
1F
100
AcDbEntity
  8
0
  6
Continuous
 62
     7
370
    30
100
AcDbLine
 10
9.350111710553403
 20
4.3999282201057
 30
0.0
 11
9.325611693579688
 21
4.385783263509446
 31
0.0
  0
LINE
  5
C9
330
1F
100
AcDbEntity
  8
0
  6
Continuous
 62
     7
370
    30
100
AcDbLine
 10
9.515611692016828
 20
4.330227598626561
 30
0.0
 11
9.491111675043113
 21
4.344372701887788
 31
0.0
  0
LINE
  5
CA
330
1F
100
AcDbEntity
  8
0
  6
Continuous
 62
     7
370
    30
100
AcDbLine
 10
9.350111710553403
 20
4.344372701887788
 30
0.0
 11
9.325611693579688
 21
4.330227598626561
 31
0.0
  0
LINE
  5
CB
330
1F
100
AcDbEntity
  8
0
  6
Continuous
 62
     7
370
    30
100
AcDbLine
 10
9.515611692016828
 20
4.163560970640336
 30
0.0
 11
9.491111675043113
 21
4.177706073901563
 31
0.0
  0
LINE
  5
CC
330
1F
100
AcDbEntity
  8
0
  6
Continuous
 62
     7
370
    30
100
AcDbLine
 10
9.350111710553403
 20
4.177706073901563
 30
0.0
 11
9.325611693579688
 21
4.163560970640336
 31
0.0
  0
LINE
  5
CD
330
1F
100
AcDbEntity
  8
0
  6
Continuous
 62
     7
370
    30
100
AcDbLine
 10
9.325611693579688
 20
4.330227598626561
 30
0.0
 11
9.350111710553403
 21
4.316082495365334
 31
0.0
  0
LINE
  5
CE
330
1F
100
AcDbEntity
  8
0
  6
Continuous
 62
     7
370
    30
100
AcDbLine
 10
9.491111675043113
 20
4.316082495365334
 30
0.0
 11
9.515611692016828
 21
4.330227598626561
 31
0.0
  0
LINE
  5
CF
330
1F
100
AcDbEntity
  8
0
  6
Continuous
 62
     7
370
    30
100
AcDbLine
 10
9.325611693579688
 20
4.274672080408648
 30
0.0
 11
9.350111710553403
 21
4.260526977147421
 31
0.0
  0
LINE
  5
D0
330
1F
100
AcDbEntity
  8
0
  6
Continuous
 62
     7
370
    30
100
AcDbLine
 10
9.491111675043113
 20
4.260526977147421
 30
0.0
 11
9.515611692016828
 21
4.274672080408648
 31
0.0
  0
LINE
  5
D1
330
1F
100
AcDbEntity
  8
0
  6
Continuous
 62
     7
370
    30
100
AcDbLine
 10
9.325611693579688
 20
4.385783263509446
 30
0.0
 11
9.350111710553403
 21
4.371638160248219
 31
0.0
  0
LINE
  5
D2
330
1F
100
AcDbEntity
  8
0
  6
Continuous
 62
     7
370
    30
100
AcDbLine
 10
9.491111675043113
 20
4.371638160248219
 30
0.0
 11
9.515611692016828
 21
4.385783263509446
 31
0.0
  0
LINE
  5
D3
330
1F
100
AcDbEntity
  8
0
  6
Continuous
 62
     7
370
    30
100
AcDbLine
 10
9.325611693579688
 20
4.108005452422423
 30
0.0
 11
9.350111710553403
 21
4.093860349161196
 31
0.0
  0
LINE
  5
D4
330
1F
100
AcDbEntity
  8
0
  6
Continuous
 62
     7
370
    30
100
AcDbLine
 10
9.491111675043113
 20
4.093860349161196
 30
0.0
 11
9.515611692016828
 21
4.108005452422423
 31
0.0
  0
LINE
  5
D5
330
1F
100
AcDbEntity
  8
0
  6
Continuous
 62
     7
370
    30
100
AcDbLine
 10
9.325611693579688
 20
3.941338751103713
 30
0.0
 11
9.350111710553403
 21
3.927193647842486
 31
0.0
  0
LINE
  5
D6
330
1F
100
AcDbEntity
  8
0
  6
Continuous
 62
     7
370
    30
100
AcDbLine
 10
9.491111675043113
 20
3.927193647842486
 30
0.0
 11
9.515611692016828
 21
3.941338751103713
 31
0.0
  0
LINE
  5
D7
330
1F
100
AcDbEntity
  8
0
  6
Continuous
 62
     7
370
    30
100
AcDbLine
 10
9.325611693579688
 20
4.052449860872025
 30
0.0
 11
9.350111710553403
 21
4.038304757610797
 31
0.0
  0
LINE
  5
D8
330
1F
100
AcDbEntity
  8
0
  6
Continuous
 62
     7
370
    30
100
AcDbLine
 10
9.491111675043113
 20
4.038304757610797
 30
0.0
 11
9.515611692016828
 21
4.052449860872025
 31
0.0
  0
LINE
  5
D9
330
1F
100
AcDbEntity
  8
0
  6
Continuous
 62
     7
370
    30
100
AcDbLine
 10
9.325611693579688
 20
3.996894342654111
 30
0.0
 11
9.350111710553403
 21
3.982749239392885
 31
0.0
  0
LINE
  5
DA
330
1F
100
AcDbEntity
  8
0
  6
Continuous
 62
     7
370
    30
100
AcDbLine
 10
9.491111675043113
 20
3.982749239392885
 30
0.0
 11
9.515611692016828
 21
3.996894342654111
 31
0.0
  0
LINE
  5
DB
330
1F
100
AcDbEntity
  8
0
  6
Continuous
 62
     7
370
    30
100
AcDbLine
 10
9.515611692016828
 20
4.108005452422423
 30
0.0
 11
9.491111675043113
 21
4.122150482351164
 31
0.0
  0
LINE
  5
DC
330
1F
100
AcDbEntity
  8
0
  6
Continuous
 62
     7
370
    30
100
AcDbLine
 10
9.350111710553403
 20
4.122150482351164
 30
0.0
 11
9.325611693579688
 21
4.108005452422423
 31
0.0
  0
LINE
  5
DD
330
1F
100
AcDbEntity
  8
0
  6
Continuous
 62
     7
370
    30
100
AcDbLine
 10
9.325611693579688
 20
4.163560970640336
 30
0.0
 11
9.350111710553403
 21
4.149415867379109
 31
0.0
  0
LINE
  5
DE
330
1F
100
AcDbEntity
  8
0
  6
Continuous
 62
     7
370
    30
100
AcDbLine
 10
9.491111675043113
 20
4.149415867379109
 30
0.0
 11
9.515611692016828
 21
4.163560970640336
 31
0.0
  0
LINE
  5
DF
330
1F
100
AcDbEntity
  8
0
  6
Continuous
 62
     7
370
    30
100
AcDbLine
 10
9.515611692016828
 20
3.996894342654111
 30
0.0
 11
9.491111675043113
 21
4.011039372582852
 31
0.0
  0
LINE
  5
E0
330
1F
100
AcDbEntity
  8
0
  6
Continuous
 62
     7
370
    30
100
AcDbLine
 10
9.350111710553403
 20
4.011039372582852
 30
0.0
 11
9.325611693579688
 21
3.996894342654111
 31
0.0
  0
LINE
  5
E1
330
1F
100
AcDbEntity
  8
0
  6
Continuous
 62
     7
370
    30
100
AcDbLine
 10
9.515611692016828
 20
3.941338751103713
 30
0.0
 11
9.491111675043113
 21
3.955483854364939
 31
0.0
  0
LINE
  5
E2
330
1F
100
AcDbEntity
  8
0
  6
Continuous
 62
     7
370
    30
100
AcDbLine
 10
9.350111710553403
 20
3.955483854364939
 30
0.0
 11
9.325611693579688
 21
3.941338751103713
 31
0.0
  0
LINE
  5
E3
330
1F
100
AcDbEntity
  8
0
  6
Continuous
 62
     7
370
    30
100
AcDbLine
 10
9.515611692016828
 20
4.052449860872025
 30
0.0
 11
9.491111675043113
 21
4.066594964133251
 31
0.0
  0
LINE
  5
E4
330
1F
100
AcDbEntity
  8
0
  6
Continuous
 62
     7
370
    30
100
AcDbLine
 10
9.350111710553403
 20
4.066594964133251
 30
0.0
 11
9.325611693579688
 21
4.052449860872025
 31
0.0
  0
LINE
  5
E5
330
1F
100
AcDbEntity
  8
0
  6
Continuous
 62
     7
370
    30
100
AcDbLine
 10
9.325611693579688
 20
3.774672123117488
 30
0.0
 11
9.350111710553403
 21
3.760527019856261
 31
0.0
  0
LINE
  5
E6
330
1F
100
AcDbEntity
  8
0
  6
Continuous
 62
     7
370
    30
100
AcDbLine
 10
9.491111675043113
 20
3.760527019856261
 30
0.0
 11
9.515611692016828
 21
3.774672123117488
 31
0.0
  0
LINE
  5
E7
330
1F
100
AcDbEntity
  8
0
  6
Continuous
 62
     7
370
    30
100
AcDbLine
 10
9.325611693579688
 20
3.830227641335401
 30
0.0
 11
9.350111710553403
 21
3.816082538074174
 31
0.0
  0
LINE
  5
E8
330
1F
100
AcDbEntity
  8
0
  6
Continuous
 62
     7
370
    30
100
AcDbLine
 10
9.491111675043113
 20
3.816082538074174
 30
0.0
 11
9.515611692016828
 21
3.830227641335401
 31
0.0
  0
LINE
  5
E9
330
1F
100
AcDbEntity
  8
0
  6
Continuous
 62
     7
370
    30
100
AcDbLine
 10
9.515611692016828
 20
3.830227641335401
 30
0.0
 11
9.491111675043113
 21
3.844372744596627
 31
0.0
  0
LINE
  5
EA
330
1F
100
AcDbEntity
  8
0
  6
Continuous
 62
     7
370
    30
100
AcDbLine
 10
9.350111710553403
 20
3.844372744596627
 30
0.0
 11
9.325611693579688
 21
3.830227641335401
 31
0.0
  0
LINE
  5
EB
330
1F
100
AcDbEntity
  8
0
  6
Continuous
 62
     7
370
    30
100
AcDbLine
 10
9.515611692016828
 20
3.774672123117488
 30
0.0
 11
9.491111675043113
 21
3.788817153046228
 31
0.0
  0
LINE
  5
EC
330
1F
100
AcDbEntity
  8
0
  6
Continuous
 62
     7
370
    30
100
AcDbLine
 10
9.350111710553403
 20
3.788817153046228
 30
0.0
 11
9.325611693579688
 21
3.774672123117488
 31
0.0
  0
LINE
  5
ED
330
1F
100
AcDbEntity
  8
0
  6
Continuous
 62
     7
370
    30
100
AcDbLine
 10
9.325611693579688
 20
3.8857832328858
 30
0.0
 11
9.350111710553403
 21
3.871638129624573
 31
0.0
  0
LINE
  5
EE
330
1F
100
AcDbEntity
  8
0
  6
Continuous
 62
     7
370
    30
100
AcDbLine
 10
9.491111675043113
 20
3.871638129624573
 30
0.0
 11
9.515611692016828
 21
3.8857832328858
 31
0.0
  0
LINE
  5
EF
330
1F
100
AcDbEntity
  8
0
  6
Continuous
 62
     7
370
    30
100
AcDbLine
 10
9.515611692016828
 20
3.8857832328858
 30
0.0
 11
9.491111675043113
 21
3.89992826281454
 31
0.0
  0
LINE
  5
F0
330
1F
100
AcDbEntity
  8
0
  6
Continuous
 62
     7
370
    30
100
AcDbLine
 10
9.350111710553403
 20
3.89992826281454
 30
0.0
 11
9.325611693579688
 21
3.8857832328858
 31
0.0
  0
LINE
  5
F1
330
1F
100
AcDbEntity
  8
0
  6
Continuous
 62
     7
370
    30
100
AcDbLine
 10
9.512611733339272
 20
2.884051149980302
 30
0.0
 11
9.514541917708284
 21
2.885165537940131
 31
0.0
  0
LINE
  5
F2
330
1F
100
AcDbEntity
  8
0
  6
Continuous
 62
     7
370
    30
100
AcDbLine
 10
9.502428784306902
 20
2.837838813829153
 30
0.0
 11
9.491111675043113
 21
2.844372720015578
 31
0.0
  0
LINE
  5
F3
330
1F
100
AcDbEntity
  8
0
  6
Continuous
 62
     7
370
    30
100
AcDbLine
 10
9.350111710553403
 20
2.844372720015578
 30
0.0
 11
9.326650631577788
 21
2.830827476491387
 31
0.0
  0
LINE
  5
F4
330
1F
100
AcDbEntity
  8
0
  6
Continuous
 62
     7
370
    30
100
AcDbLine
 10
9.515611692016828
 20
2.774672080203317
 30
0.0
 11
9.491111675043113
 21
2.788817165131422
 31
0.0
  0
LINE
  5
F5
330
1F
100
AcDbEntity
  8
0
  6
Continuous
 62
     7
370
    30
100
AcDbLine
 10
9.350111710553403
 20
2.788817165131422
 30
0.0
 11
9.325611693579688
 21
2.774672080203317
 31
0.0
  0
LINE
  5
F6
330
1F
100
AcDbEntity
  8
0
  6
Continuous
 62
     7
370
    30
100
AcDbLine
 10
9.325611693579688
 20
2.774672080203317
 30
0.0
 11
9.350111710553403
 21
2.760527013608333
 31
0.0
  0
LINE
  5
F7
330
1F
100
AcDbEntity
  8
0
  6
Continuous
 62
     7
370
    30
100
AcDbLine
 10
9.491111675043113
 20
2.760527013608333
 30
0.0
 11
9.515611692016828
 21
2.774672080203317
 31
0.0
  0
LINE
  5
F8
330
1F
100
AcDbEntity
  8
0
  6
Continuous
 62
     7
370
    30
100
AcDbLine
 10
9.326650631577788
 20
2.82962781201668
 30
0.0
 11
9.350111710553403
 21
2.816082568492489
 31
0.0
  0
LINE
  5
F9
330
1F
100
AcDbEntity
  8
0
  6
Continuous
 62
     7
370
    30
100
AcDbLine
 10
9.491111675043113
 20
2.816082568492489
 30
0.0
 11
9.502292312550102
 21
2.822537678922503
 31
0.0
  0
LINE
  5
FA
330
1F
100
AcDbEntity
  8
0
  6
Continuous
 62
     7
370
    30
100
AcDbLine
 10
9.326835356110502
 20
2.94063227801695
 30
0.0
 11
9.32861172558973
 21
2.939606704864458
 31
0.0
  0
LINE
  5
FB
330
1F
100
AcDbEntity
  8
0
  6
Continuous
 62
     7
370
    30
100
AcDbLine
 10
9.507296961402638
 20
2.723917071529508
 30
0.0
 11
9.491111675043113
 21
2.733261610247266
 31
0.0
  0
LINE
  5
FC
330
1F
100
AcDbEntity
  8
0
  6
Continuous
 62
     7
370
    30
100
AcDbLine
 10
9.350111710553403
 20
2.733261610247266
 30
0.0
 11
9.333926497526365
 21
2.723917071529508
 31
0.0
  0
LINE
  5
FD
330
1F
100
AcDbEntity
  8
0
  6
Continuous
 62
     7
370
    30
100
AcDbLine
 10
9.491111675043113
 20
4.993358898077203
 30
0.0
 11
9.4206117294645
 21
5.163560958555142
 31
0.0
  0
LINE
  5
FE
330
1F
100
AcDbEntity
  8
0
  6
Continuous
 62
     7
370
    30
100
AcDbLine
 10
9.4206117294645
 20
5.163560958555142
 30
0.0
 11
9.350111710553403
 21
4.993358898077203
 31
0.0
  0
LINE
  5
FF
330
1F
100
AcDbEntity
  8
0
  6
Continuous
 62
     7
370
    30
100
AcDbLine
 10
9.491111675043113
 20
4.955483842279746
 30
0.0
 11
9.491111675043113
 21
4.993358898077203
 31
0.0
  0
LINE
  5
100
330
1F
100
AcDbEntity
  8
0
  6
Continuous
 62
     7
370
    30
100
AcDbLine
 10
9.350111710553403
 20
4.993358898077203
 30
0.0
 11
9.350111710553403
 21
4.955483842279746
 31
0.0
  0
LINE
  5
101
330
1F
100
AcDbEntity
  8
0
  6
Continuous
 62
     7
370
    30
100
AcDbLine
 10
9.491111675043113
 20
4.788817140961035
 30
0.0
 11
9.491111675043113
 21
4.816082599321466
 31
0.0
  0
LINE
  5
102
330
1F
100
AcDbEntity
  8
0
  6
Continuous
 62
     7
370
    30
100
AcDbLine
 10
9.350111710553403
 20
4.816082599321466
 30
0.0
 11
9.350111710553403
 21
4.788817140961035
 31
0.0
  0
LINE
  5
103
330
1F
100
AcDbEntity
  8
0
  6
Continuous
 62
     7
370
    30
100
AcDbLine
 10
9.491111675043113
 20
4.844372659178948
 30
0.0
 11
9.491111675043113
 21
4.871638117539379
 31
0.0
  0
LINE
  5
104
330
1F
100
AcDbEntity
  8
0
  6
Continuous
 62
     7
370
    30
100
AcDbLine
 10
9.350111710553403
 20
4.871638117539379
 30
0.0
 11
9.350111710553403
 21
4.844372659178948
 31
0.0
  0
LINE
  5
105
330
1F
100
AcDbEntity
  8
0
  6
Continuous
 62
     7
370
    30
100
AcDbLine
 10
9.491111675043113
 20
4.899928324061833
 30
0.0
 11
9.491111675043113
 21
4.927193635757292
 31
0.0
  0
LINE
  5
106
330
1F
100
AcDbEntity
  8
0
  6
Continuous
 62
     7
370
    30
100
AcDbLine
 10
9.350111710553403
 20
4.927193635757292
 30
0.0
 11
9.350111710553403
 21
4.899928324061833
 31
0.0
  0
LINE
  5
107
330
1F
100
AcDbEntity
  8
0
  6
Continuous
 62
     7
370
    30
100
AcDbLine
 10
9.491111675043113
 20
4.622150439642324
 30
0.0
 11
9.491111675043113
 21
4.649415898002755
 31
0.0
  0
LINE
  5
108
330
1F
100
AcDbEntity
  8
0
  6
Continuous
 62
     7
370
    30
100
AcDbLine
 10
9.350111710553403
 20
4.649415898002755
 30
0.0
 11
9.350111710553403
 21
4.622150439642324
 31
0.0
  0
LINE
  5
109
330
1F
100
AcDbEntity
  8
0
  6
Continuous
 62
     7
370
    30
100
AcDbLine
 10
9.491111675043113
 20
4.733261622743122
 30
0.0
 11
9.491111675043113
 21
4.760526934438581
 31
0.0
  0
LINE
  5
10A
330
1F
100
AcDbEntity
  8
0
  6
Continuous
 62
     7
370
    30
100
AcDbLine
 10
9.350111710553403
 20
4.760526934438581
 30
0.0
 11
9.350111710553403
 21
4.733261622743122
 31
0.0
  0
LINE
  5
10B
330
1F
100
AcDbEntity
  8
0
  6
Continuous
 62
     7
370
    30
100
AcDbLine
 10
9.491111675043113
 20
4.566594921424411
 30
0.0
 11
9.491111675043113
 21
4.593860379784843
 31
0.0
  0
LINE
  5
10C
330
1F
100
AcDbEntity
  8
0
  6
Continuous
 62
     7
370
    30
100
AcDbLine
 10
9.350111710553403
 20
4.593860379784843
 30
0.0
 11
9.350111710553403
 21
4.566594921424411
 31
0.0
  0
LINE
  5
10D
330
1F
100
AcDbEntity
  8
0
  6
Continuous
 62
     7
370
    30
100
AcDbLine
 10
9.491111675043113
 20
4.677706104525209
 30
0.0
 11
9.491111675043113
 21
4.704971416220668
 31
0.0
  0
LINE
  5
10E
330
1F
100
AcDbEntity
  8
0
  6
Continuous
 62
     7
370
    30
100
AcDbLine
 10
9.350111710553403
 20
4.704971416220668
 30
0.0
 11
9.350111710553403
 21
4.677706104525209
 31
0.0
  0
LINE
  5
10F
330
1F
100
AcDbEntity
  8
0
  6
Continuous
 62
     7
370
    30
100
AcDbLine
 10
9.491111675043113
 20
4.344372701887788
 30
0.0
 11
9.491111675043113
 21
4.371638160248219
 31
0.0
  0
LINE
  5
110
330
1F
100
AcDbEntity
  8
0
  6
Continuous
 62
     7
370
    30
100
AcDbLine
 10
9.350111710553403
 20
4.371638160248219
 30
0.0
 11
9.350111710553403
 21
4.344372701887788
 31
0.0
  0
LINE
  5
111
330
1F
100
AcDbEntity
  8
0
  6
Continuous
 62
     7
370
    30
100
AcDbLine
 10
9.491111675043113
 20
4.3999282201057
 30
0.0
 11
9.491111675043113
 21
4.427193678466132
 31
0.0
  0
LINE
  5
112
330
1F
100
AcDbEntity
  8
0
  6
Continuous
 62
     7
370
    30
100
AcDbLine
 10
9.350111710553403
 20
4.427193678466132
 30
0.0
 11
9.350111710553403
 21
4.3999282201057
 31
0.0
  0
LINE
  5
113
330
1F
100
AcDbEntity
  8
0
  6
Continuous
 62
     7
370
    30
100
AcDbLine
 10
9.491111675043113
 20
4.455483884988586
 30
0.0
 11
9.491111675043113
 21
4.462560909900857
 31
0.0
  0
LINE
  5
114
330
1F
100
AcDbEntity
  8
0
  6
Continuous
 62
     7
370
    30
100
AcDbLine
 10
9.350111710553403
 20
4.462560909900857
 30
0.0
 11
9.350111710553403
 21
4.455483884988586
 31
0.0
  0
LINE
  5
115
330
1F
100
AcDbEntity
  8
0
  6
Continuous
 62
     7
370
    30
100
AcDbLine
 10
9.491111675043113
 20
4.066594964133251
 30
0.0
 11
9.491111675043113
 21
4.093860349161196
 31
0.0
  0
LINE
  5
116
330
1F
100
AcDbEntity
  8
0
  6
Continuous
 62
     7
370
    30
100
AcDbLine
 10
9.350111710553403
 20
4.093860349161196
 30
0.0
 11
9.350111710553403
 21
4.066594964133251
 31
0.0
  0
LINE
  5
117
330
1F
100
AcDbEntity
  8
0
  6
Continuous
 62
     7
370
    30
100
AcDbLine
 10
9.491111675043113
 20
4.122150482351164
 30
0.0
 11
9.491111675043113
 21
4.149415867379109
 31
0.0
  0
LINE
  5
118
330
1F
100
AcDbEntity
  8
0
  6
Continuous
 62
     7
370
    30
100
AcDbLine
 10
9.350111710553403
 20
4.149415867379109
 30
0.0
 11
9.350111710553403
 21
4.122150482351164
 31
0.0
  0
LINE
  5
119
330
1F
100
AcDbEntity
  8
0
  6
Continuous
 62
     7
370
    30
100
AcDbLine
 10
9.491111675043113
 20
4.233261592119476
 30
0.0
 11
9.491111675043113
 21
4.260526977147421
 31
0.0
  0
LINE
  5
11A
330
1F
100
AcDbEntity
  8
0
  6
Continuous
 62
     7
370
    30
100
AcDbLine
 10
9.350111710553403
 20
4.260526977147421
 30
0.0
 11
9.350111710553403
 21
4.233261592119476
 31
0.0
  0
LINE
  5
11B
330
1F
100
AcDbEntity
  8
0
  6
Continuous
 62
     7
370
    30
100
AcDbLine
 10
9.491111675043113
 20
4.177706073901563
 30
0.0
 11
9.491111675043113
 21
4.204971458929508
 31
0.0
  0
LINE
  5
11C
330
1F
100
AcDbEntity
  8
0
  6
Continuous
 62
     7
370
    30
100
AcDbLine
 10
9.350111710553403
 20
4.204971458929508
 30
0.0
 11
9.350111710553403
 21
4.177706073901563
 31
0.0
  0
LINE
  5
11D
330
1F
100
AcDbEntity
  8
0
  6
Continuous
 62
     7
370
    30
100
AcDbLine
 10
9.491111675043113
 20
4.288817183669875
 30
0.0
 11
9.491111675043113
 21
4.316082495365334
 31
0.0
  0
LINE
  5
11E
330
1F
100
AcDbEntity
  8
0
  6
Continuous
 62
     7
370
    30
100
AcDbLine
 10
9.350111710553403
 20
4.316082495365334
 30
0.0
 11
9.350111710553403
 21
4.288817183669875
 31
0.0
  0
LINE
  5
11F
330
1F
100
AcDbEntity
  8
0
  6
Continuous
 62
     7
370
    30
100
AcDbLine
 10
9.491111675043113
 20
3.844372744596627
 30
0.0
 11
9.491111675043113
 21
3.871638129624573
 31
0.0
  0
LINE
  5
120
330
1F
100
AcDbEntity
  8
0
  6
Continuous
 62
     7
370
    30
100
AcDbLine
 10
9.350111710553403
 20
3.871638129624573
 30
0.0
 11
9.350111710553403
 21
3.844372744596627
 31
0.0
  0
LINE
  5
121
330
1F
100
AcDbEntity
  8
0
  6
Continuous
 62
     7
370
    30
100
AcDbLine
 10
9.491111675043113
 20
3.955483854364939
 30
0.0
 11
9.491111675043113
 21
3.982749239392885
 31
0.0
  0
LINE
  5
122
330
1F
100
AcDbEntity
  8
0
  6
Continuous
 62
     7
370
    30
100
AcDbLine
 10
9.350111710553403
 20
3.982749239392885
 30
0.0
 11
9.350111710553403
 21
3.955483854364939
 31
0.0
  0
LINE
  5
123
330
1F
100
AcDbEntity
  8
0
  6
Continuous
 62
     7
370
    30
100
AcDbLine
 10
9.491111675043113
 20
4.011039372582852
 30
0.0
 11
9.491111675043113
 21
4.038304757610797
 31
0.0
  0
LINE
  5
124
330
1F
100
AcDbEntity
  8
0
  6
Continuous
 62
     7
370
    30
100
AcDbLine
 10
9.350111710553403
 20
4.038304757610797
 30
0.0
 11
9.350111710553403
 21
4.011039372582852
 31
0.0
  0
LINE
  5
125
330
1F
100
AcDbEntity
  8
0
  6
Continuous
 62
     7
370
    30
100
AcDbLine
 10
9.491111675043113
 20
3.89992826281454
 30
0.0
 11
9.491111675043113
 21
3.927193647842486
 31
0.0
  0
LINE
  5
126
330
1F
100
AcDbEntity
  8
0
  6
Continuous
 62
     7
370
    30
100
AcDbLine
 10
9.350111710553403
 20
3.927193647842486
 30
0.0
 11
9.350111710553403
 21
3.89992826281454
 31
0.0
  0
LINE
  5
127
330
1F
100
AcDbEntity
  8
0
  6
Continuous
 62
     7
370
    30
100
AcDbLine
 10
9.491111675043113
 20
3.788817153046228
 30
0.0
 11
9.491111675043113
 21
3.816082538074174
 31
0.0
  0
LINE
  5
128
330
1F
100
AcDbEntity
  8
0
  6
Continuous
 62
     7
370
    30
100
AcDbLine
 10
9.350111710553403
 20
3.816082538074174
 30
0.0
 11
9.350111710553403
 21
3.788817153046228
 31
0.0
  0
LINE
  5
129
330
1F
100
AcDbEntity
  8
0
  6
Continuous
 62
     7
370
    30
100
AcDbLine
 10
9.491111675043113
 20
3.744560997630446
 30
0.0
 11
9.491111675043113
 21
3.760527019856261
 31
0.0
  0
LINE
  5
12A
330
1F
100
AcDbEntity
  8
0
  6
Continuous
 62
     7
370
    30
100
AcDbLine
 10
9.350111710553403
 20
3.760527019856261
 30
0.0
 11
9.350111710553403
 21
3.744560997630446
 31
0.0
  0
LINE
  5
12B
330
1F
100
AcDbEntity
  8
0
  6
Continuous
 62
     7
370
    30
100
AcDbLine
 10
9.491111675043113
 20
2.844372720015578
 30
0.0
 11
9.491111675043113
 21
2.851560971976278
 31
0.0
  0
LINE
  5
12C
330
1F
100
AcDbEntity
  8
0
  6
Continuous
 62
     7
370
    30
100
AcDbLine
 10
9.350111710553403
 20
2.851560971976278
 30
0.0
 11
9.350111710553403
 21
2.844372720015578
 31
0.0
  0
LINE
  5
12D
330
1F
100
AcDbEntity
  8
0
  6
Continuous
 62
     7
370
    30
100
AcDbLine
 10
9.491111675043113
 20
2.788817165131422
 30
0.0
 11
9.491111675043113
 21
2.816082568492489
 31
0.0
  0
LINE
  5
12E
330
1F
100
AcDbEntity
  8
0
  6
Continuous
 62
     7
370
    30
100
AcDbLine
 10
9.350111710553403
 20
2.816082568492489
 30
0.0
 11
9.350111710553403
 21
2.788817165131422
 31
0.0
  0
LINE
  5
12F
330
1F
100
AcDbEntity
  8
0
  6
Continuous
 62
     7
370
    30
100
AcDbLine
 10
9.491111675043113
 20
2.733261610247266
 30
0.0
 11
9.491111675043113
 21
2.760527013608333
 31
0.0
  0
LINE
  5
130
330
1F
100
AcDbEntity
  8
0
  6
Continuous
 62
     7
370
    30
100
AcDbLine
 10
9.350111710553403
 20
2.760527013608333
 30
0.0
 11
9.350111710553403
 21
2.733261610247266
 31
0.0
  0
LINE
  5
131
330
1F
100
AcDbEntity
  8
0
  6
Continuous
 62
     7
370
    30
100
AcDbLine
 10
7.984111704035376
 20
2.663560988768126
 30
0.0
 11
7.984111704035376
 21
2.61529460967879
 31
0.0
  0
LINE
  5
132
330
1F
100
AcDbEntity
  8
0
  6
Continuous
 62
     7
370
    30
100
AcDbLine
 10
8.357111711774124
 20
2.61529460967879
 30
0.0
 11
8.357111711774124
 21
2.663560988768126
 31
0.0
  0
ARC
  5
133
330
1F
100
AcDbEntity
  8
0
  6
Continuous
 62
     7
370
    30
100
AcDbCircle
 10
8.004111709518066
 20
2.615294611881746
 30
0.0
 40
0.0200000000000007
100
AcDbArc
 50
180.0
 51
241.8571552446976
  0
ARC
  5
134
330
1F
100
AcDbEntity
  8
0
  6
Continuous
 62
     7
370
    30
100
AcDbCircle
 10
8.337111709518066
 20
2.615294611881746
 30
0.0
 40
0.0199999999999998
100
AcDbArc
 50
298.1428447552995
 51
0.0
  0
ARC
  5
135
330
1F
100
AcDbEntity
  8
0
  6
Continuous
 62
     7
370
    30
100
AcDbCircle
 10
8.170611709518065
 20
2.92656097691337
 30
0.0
 40
0.3730000000000004
100
AcDbArc
 50
285.0264975674245
 51
298.1428447553023
  0
ARC
  5
136
330
1F
100
AcDbEntity
  8
0
  6
Continuous
 62
     7
370
    30
100
AcDbCircle
 10
8.170611709518065
 20
2.92656097691337
 30
0.0
 40
0.3730000000000004
100
AcDbArc
 50
241.8571552446993
 51
254.9735024325771
  0
LINE
  5
137
330
1F
100
AcDbEntity
  8
0
  6
Continuous
 62
     7
370
    30
100
AcDbLine
 10
8.257296921509765
 20
2.723917071529508
 30
0.0
 11
8.241111708482727
 21
2.733261610247266
 31
0.0
  0
LINE
  5
138
330
1F
100
AcDbEntity
  8
0
  6
Continuous
 62
     7
370
    30
100
AcDbLine
 10
8.100111743993017
 20
2.733261610247266
 30
0.0
 11
8.083926457633492
 21
2.723917071529508
 31
0.0
  0
LINE
  5
139
330
1F
100
AcDbEntity
  8
0
  6
Continuous
 62
     7
370
    30
100
AcDbLine
 10
8.075611727019302
 20
2.774672080203317
 30
0.0
 11
8.100111743993017
 21
2.760527013608333
 31
0.0
  0
LINE
  5
13A
330
1F
100
AcDbEntity
  8
0
  6
Continuous
 62
     7
370
    30
100
AcDbLine
 10
8.241111708482727
 20
2.760527013608333
 30
0.0
 11
8.265611725456441
 21
2.774672080203317
 31
0.0
  0
LINE
  5
13B
330
1F
100
AcDbEntity
  8
0
  6
Continuous
 62
     7
370
    30
100
AcDbLine
 10
8.252428781080273
 20
2.837838813829153
 30
0.0
 11
8.241111708482727
 21
2.844372720015578
 31
0.0
  0
LINE
  5
13C
330
1F
100
AcDbEntity
  8
0
  6
Continuous
 62
     7
370
    30
100
AcDbLine
 10
8.100111743993017
 20
2.844372720015578
 30
0.0
 11
8.076650628351159
 21
2.830827476491387
 31
0.0
  0
LINE
  5
13D
330
1F
100
AcDbEntity
  8
0
  6
Continuous
 62
     7
370
    30
100
AcDbLine
 10
8.265611725456441
 20
2.774672080203317
 30
0.0
 11
8.241111708482727
 21
2.788817165131422
 31
0.0
  0
LINE
  5
13E
330
1F
100
AcDbEntity
  8
0
  6
Continuous
 62
     7
370
    30
100
AcDbLine
 10
8.100111743993017
 20
2.788817165131422
 30
0.0
 11
8.075611727019302
 21
2.774672080203317
 31
0.0
  0
LINE
  5
13F
330
1F
100
AcDbEntity
  8
0
  6
Continuous
 62
     7
370
    30
100
AcDbLine
 10
8.076650628351159
 20
2.82962781201668
 30
0.0
 11
8.100111743993017
 21
2.816082568492489
 31
0.0
  0
LINE
  5
140
330
1F
100
AcDbEntity
  8
0
  6
Continuous
 62
     7
370
    30
100
AcDbLine
 10
8.241111708482727
 20
2.816082568492489
 30
0.0
 11
8.252292309323472
 21
2.822537678922503
 31
0.0
  0
LINE
  5
141
330
1F
100
AcDbEntity
  8
0
  6
Continuous
 62
     7
370
    30
100
AcDbLine
 10
8.076835352883872
 20
2.94063227801695
 30
0.0
 11
8.078611685696858
 21
2.939606704864458
 31
0.0
  0
LINE
  5
142
330
1F
100
AcDbEntity
  8
0
  6
Continuous
 62
     7
370
    30
100
AcDbLine
 10
8.2626116934464
 20
2.884051149980302
 30
0.0
 11
8.264541877815413
 21
2.885165537940131
 31
0.0
  0
LINE
  5
143
330
1F
100
AcDbEntity
  8
0
  6
Continuous
 62
     7
370
    30
100
AcDbLine
 10
8.075611727019302
 20
3.774672123117488
 30
0.0
 11
8.100111743993017
 21
3.760527019856261
 31
0.0
  0
LINE
  5
144
330
1F
100
AcDbEntity
  8
0
  6
Continuous
 62
     7
370
    30
100
AcDbLine
 10
8.241111708482727
 20
3.760527019856261
 30
0.0
 11
8.265611725456441
 21
3.774672123117488
 31
0.0
  0
LINE
  5
145
330
1F
100
AcDbEntity
  8
0
  6
Continuous
 62
     7
370
    30
100
AcDbLine
 10
8.075611727019302
 20
3.830227641335401
 30
0.0
 11
8.100111743993017
 21
3.816082538074174
 31
0.0
  0
LINE
  5
146
330
1F
100
AcDbEntity
  8
0
  6
Continuous
 62
     7
370
    30
100
AcDbLine
 10
8.241111708482727
 20
3.816082538074174
 30
0.0
 11
8.265611725456441
 21
3.830227641335401
 31
0.0
  0
LINE
  5
147
330
1F
100
AcDbEntity
  8
0
  6
Continuous
 62
     7
370
    30
100
AcDbLine
 10
8.265611725456441
 20
3.830227641335401
 30
0.0
 11
8.241111708482727
 21
3.844372744596627
 31
0.0
  0
LINE
  5
148
330
1F
100
AcDbEntity
  8
0
  6
Continuous
 62
     7
370
    30
100
AcDbLine
 10
8.100111743993017
 20
3.844372744596627
 30
0.0
 11
8.075611727019302
 21
3.830227641335401
 31
0.0
  0
LINE
  5
149
330
1F
100
AcDbEntity
  8
0
  6
Continuous
 62
     7
370
    30
100
AcDbLine
 10
8.265611725456441
 20
3.774672123117488
 30
0.0
 11
8.241111708482727
 21
3.788817153046228
 31
0.0
  0
LINE
  5
14A
330
1F
100
AcDbEntity
  8
0
  6
Continuous
 62
     7
370
    30
100
AcDbLine
 10
8.100111743993017
 20
3.788817153046228
 30
0.0
 11
8.075611727019302
 21
3.774672123117488
 31
0.0
  0
LINE
  5
14B
330
1F
100
AcDbEntity
  8
0
  6
Continuous
 62
     7
370
    30
100
AcDbLine
 10
8.265611725456441
 20
3.941338751103713
 30
0.0
 11
8.241111708482727
 21
3.955483854364939
 31
0.0
  0
LINE
  5
14C
330
1F
100
AcDbEntity
  8
0
  6
Continuous
 62
     7
370
    30
100
AcDbLine
 10
8.100111743993017
 20
3.955483854364939
 30
0.0
 11
8.075611727019302
 21
3.941338751103713
 31
0.0
  0
LINE
  5
14D
330
1F
100
AcDbEntity
  8
0
  6
Continuous
 62
     7
370
    30
100
AcDbLine
 10
8.075611727019302
 20
3.996894342654111
 30
0.0
 11
8.100111743993017
 21
3.982749239392885
 31
0.0
  0
LINE
  5
14E
330
1F
100
AcDbEntity
  8
0
  6
Continuous
 62
     7
370
    30
100
AcDbLine
 10
8.241111708482727
 20
3.982749239392885
 30
0.0
 11
8.265611725456441
 21
3.996894342654111
 31
0.0
  0
LINE
  5
14F
330
1F
100
AcDbEntity
  8
0
  6
Continuous
 62
     7
370
    30
100
AcDbLine
 10
8.075611727019302
 20
3.941338751103713
 30
0.0
 11
8.100111743993017
 21
3.927193647842486
 31
0.0
  0
LINE
  5
150
330
1F
100
AcDbEntity
  8
0
  6
Continuous
 62
     7
370
    30
100
AcDbLine
 10
8.241111708482727
 20
3.927193647842486
 30
0.0
 11
8.265611725456441
 21
3.941338751103713
 31
0.0
  0
LINE
  5
151
330
1F
100
AcDbEntity
  8
0
  6
Continuous
 62
     7
370
    30
100
AcDbLine
 10
8.075611727019302
 20
3.8857832328858
 30
0.0
 11
8.100111743993017
 21
3.871638129624573
 31
0.0
  0
LINE
  5
152
330
1F
100
AcDbEntity
  8
0
  6
Continuous
 62
     7
370
    30
100
AcDbLine
 10
8.241111708482727
 20
3.871638129624573
 30
0.0
 11
8.265611725456441
 21
3.8857832328858
 31
0.0
  0
LINE
  5
153
330
1F
100
AcDbEntity
  8
0
  6
Continuous
 62
     7
370
    30
100
AcDbLine
 10
8.265611725456441
 20
3.8857832328858
 30
0.0
 11
8.241111708482727
 21
3.89992826281454
 31
0.0
  0
LINE
  5
154
330
1F
100
AcDbEntity
  8
0
  6
Continuous
 62
     7
370
    30
100
AcDbLine
 10
8.100111743993017
 20
3.89992826281454
 30
0.0
 11
8.075611727019302
 21
3.8857832328858
 31
0.0
  0
LINE
  5
155
330
1F
100
AcDbEntity
  8
0
  6
Continuous
 62
     7
370
    30
100
AcDbLine
 10
8.075611727019302
 20
4.108005452422423
 30
0.0
 11
8.100111743993017
 21
4.093860349161196
 31
0.0
  0
LINE
  5
156
330
1F
100
AcDbEntity
  8
0
  6
Continuous
 62
     7
370
    30
100
AcDbLine
 10
8.241111708482727
 20
4.093860349161196
 30
0.0
 11
8.265611725456441
 21
4.108005452422423
 31
0.0
  0
LINE
  5
157
330
1F
100
AcDbEntity
  8
0
  6
Continuous
 62
     7
370
    30
100
AcDbLine
 10
8.265611725456441
 20
3.996894342654111
 30
0.0
 11
8.241111708482727
 21
4.011039372582852
 31
0.0
  0
LINE
  5
158
330
1F
100
AcDbEntity
  8
0
  6
Continuous
 62
     7
370
    30
100
AcDbLine
 10
8.100111743993017
 20
4.011039372582852
 30
0.0
 11
8.075611727019302
 21
3.996894342654111
 31
0.0
  0
LINE
  5
159
330
1F
100
AcDbEntity
  8
0
  6
Continuous
 62
     7
370
    30
100
AcDbLine
 10
8.265611725456441
 20
4.052449860872025
 30
0.0
 11
8.241111708482727
 21
4.066594964133251
 31
0.0
  0
LINE
  5
15A
330
1F
100
AcDbEntity
  8
0
  6
Continuous
 62
     7
370
    30
100
AcDbLine
 10
8.100111743993017
 20
4.066594964133251
 30
0.0
 11
8.075611727019302
 21
4.052449860872025
 31
0.0
  0
LINE
  5
15B
330
1F
100
AcDbEntity
  8
0
  6
Continuous
 62
     7
370
    30
100
AcDbLine
 10
8.075611727019302
 20
4.052449860872025
 30
0.0
 11
8.100111743993017
 21
4.038304757610797
 31
0.0
  0
LINE
  5
15C
330
1F
100
AcDbEntity
  8
0
  6
Continuous
 62
     7
370
    30
100
AcDbLine
 10
8.241111708482727
 20
4.038304757610797
 30
0.0
 11
8.265611725456441
 21
4.052449860872025
 31
0.0
  0
LINE
  5
15D
330
1F
100
AcDbEntity
  8
0
  6
Continuous
 62
     7
370
    30
100
AcDbLine
 10
8.265611725456441
 20
4.163560970640336
 30
0.0
 11
8.241111708482727
 21
4.177706073901563
 31
0.0
  0
LINE
  5
15E
330
1F
100
AcDbEntity
  8
0
  6
Continuous
 62
     7
370
    30
100
AcDbLine
 10
8.100111743993017
 20
4.177706073901563
 30
0.0
 11
8.075611727019302
 21
4.163560970640336
 31
0.0
  0
LINE
  5
15F
330
1F
100
AcDbEntity
  8
0
  6
Continuous
 62
     7
370
    30
100
AcDbLine
 10
8.075611727019302
 20
4.163560970640336
 30
0.0
 11
8.100111743993017
 21
4.149415867379109
 31
0.0
  0
LINE
  5
160
330
1F
100
AcDbEntity
  8
0
  6
Continuous
 62
     7
370
    30
100
AcDbLine
 10
8.241111708482727
 20
4.149415867379109
 30
0.0
 11
8.265611725456441
 21
4.163560970640336
 31
0.0
  0
LINE
  5
161
330
1F
100
AcDbEntity
  8
0
  6
Continuous
 62
     7
370
    30
100
AcDbLine
 10
8.075611727019302
 20
4.219116562190735
 30
0.0
 11
8.100111743993017
 21
4.204971458929508
 31
0.0
  0
LINE
  5
162
330
1F
100
AcDbEntity
  8
0
  6
Continuous
 62
     7
370
    30
100
AcDbLine
 10
8.241111708482727
 20
4.204971458929508
 30
0.0
 11
8.265611725456441
 21
4.219116562190735
 31
0.0
  0
LINE
  5
163
330
1F
100
AcDbEntity
  8
0
  6
Continuous
 62
     7
370
    30
100
AcDbLine
 10
8.265611725456441
 20
4.108005452422423
 30
0.0
 11
8.241111708482727
 21
4.122150482351164
 31
0.0
  0
LINE
  5
164
330
1F
100
AcDbEntity
  8
0
  6
Continuous
 62
     7
370
    30
100
AcDbLine
 10
8.100111743993017
 20
4.122150482351164
 30
0.0
 11
8.075611727019302
 21
4.108005452422423
 31
0.0
  0
LINE
  5
165
330
1F
100
AcDbEntity
  8
0
  6
Continuous
 62
     7
370
    30
100
AcDbLine
 10
8.075611727019302
 20
4.330227598626561
 30
0.0
 11
8.100111743993017
 21
4.316082495365334
 31
0.0
  0
LINE
  5
166
330
1F
100
AcDbEntity
  8
0
  6
Continuous
 62
     7
370
    30
100
AcDbLine
 10
8.241111708482727
 20
4.316082495365334
 30
0.0
 11
8.265611725456441
 21
4.330227598626561
 31
0.0
  0
LINE
  5
167
330
1F
100
AcDbEntity
  8
0
  6
Continuous
 62
     7
370
    30
100
AcDbLine
 10
8.265611725456441
 20
4.274672080408648
 30
0.0
 11
8.241111708482727
 21
4.288817183669875
 31
0.0
  0
LINE
  5
168
330
1F
100
AcDbEntity
  8
0
  6
Continuous
 62
     7
370
    30
100
AcDbLine
 10
8.100111743993017
 20
4.288817183669875
 30
0.0
 11
8.075611727019302
 21
4.274672080408648
 31
0.0
  0
LINE
  5
169
330
1F
100
AcDbEntity
  8
0
  6
Continuous
 62
     7
370
    30
100
AcDbLine
 10
8.265611725456441
 20
4.219116562190735
 30
0.0
 11
8.241111708482727
 21
4.233261592119476
 31
0.0
  0
LINE
  5
16A
330
1F
100
AcDbEntity
  8
0
  6
Continuous
 62
     7
370
    30
100
AcDbLine
 10
8.100111743993017
 20
4.233261592119476
 30
0.0
 11
8.075611727019302
 21
4.219116562190735
 31
0.0
  0
LINE
  5
16B
330
1F
100
AcDbEntity
  8
0
  6
Continuous
 62
     7
370
    30
100
AcDbLine
 10
8.075611727019302
 20
4.274672080408648
 30
0.0
 11
8.100111743993017
 21
4.260526977147421
 31
0.0
  0
LINE
  5
16C
330
1F
100
AcDbEntity
  8
0
  6
Continuous
 62
     7
370
    30
100
AcDbLine
 10
8.241111708482727
 20
4.260526977147421
 30
0.0
 11
8.265611725456441
 21
4.274672080408648
 31
0.0
  0
LINE
  5
16D
330
1F
100
AcDbEntity
  8
0
  6
Continuous
 62
     7
370
    30
100
AcDbLine
 10
8.265611725456441
 20
4.441338781727358
 30
0.0
 11
8.241111708482727
 21
4.455483884988586
 31
0.0
  0
LINE
  5
16E
330
1F
100
AcDbEntity
  8
0
  6
Continuous
 62
     7
370
    30
100
AcDbLine
 10
8.100111743993017
 20
4.455483884988586
 30
0.0
 11
8.075611727019302
 21
4.441338781727358
 31
0.0
  0
LINE
  5
16F
330
1F
100
AcDbEntity
  8
0
  6
Continuous
 62
     7
370
    30
100
AcDbLine
 10
8.075611727019302
 20
4.441338781727358
 30
0.0
 11
8.100111743993017
 21
4.427193678466132
 31
0.0
  0
LINE
  5
170
330
1F
100
AcDbEntity
  8
0
  6
Continuous
 62
     7
370
    30
100
AcDbLine
 10
8.241111708482727
 20
4.427193678466132
 30
0.0
 11
8.265611725456441
 21
4.441338781727358
 31
0.0
  0
LINE
  5
171
330
1F
100
AcDbEntity
  8
0
  6
Continuous
 62
     7
370
    30
100
AcDbLine
 10
8.265611725456441
 20
4.385783263509446
 30
0.0
 11
8.241111708482727
 21
4.3999282201057
 31
0.0
  0
LINE
  5
172
330
1F
100
AcDbEntity
  8
0
  6
Continuous
 62
     7
370
    30
100
AcDbLine
 10
8.100111743993017
 20
4.3999282201057
 30
0.0
 11
8.075611727019302
 21
4.385783263509446
 31
0.0
  0
LINE
  5
173
330
1F
100
AcDbEntity
  8
0
  6
Continuous
 62
     7
370
    30
100
AcDbLine
 10
8.265611725456441
 20
4.330227598626561
 30
0.0
 11
8.241111708482727
 21
4.344372701887788
 31
0.0
  0
LINE
  5
174
330
1F
100
AcDbEntity
  8
0
  6
Continuous
 62
     7
370
    30
100
AcDbLine
 10
8.100111743993017
 20
4.344372701887788
 30
0.0
 11
8.075611727019302
 21
4.330227598626561
 31
0.0
  0
LINE
  5
175
330
1F
100
AcDbEntity
  8
0
  6
Continuous
 62
     7
370
    30
100
AcDbLine
 10
8.075611727019302
 20
4.385783263509446
 30
0.0
 11
8.100111743993017
 21
4.371638160248219
 31
0.0
  0
LINE
  5
176
330
1F
100
AcDbEntity
  8
0
  6
Continuous
 62
     7
370
    30
100
AcDbLine
 10
8.241111708482727
 20
4.371638160248219
 30
0.0
 11
8.265611725456441
 21
4.385783263509446
 31
0.0
  0
LINE
  5
177
330
1F
100
AcDbEntity
  8
0
  6
Continuous
 62
     7
370
    30
100
AcDbLine
 10
8.075611727019302
 20
4.552449818163185
 30
0.0
 11
8.089654898124724
 21
4.544342031825024
 31
0.0
  0
LINE
  5
178
330
1F
100
AcDbEntity
  8
0
  6
Continuous
 62
     7
370
    30
100
AcDbLine
 10
8.251568554351019
 20
4.544342031825024
 30
0.0
 11
8.265611725456441
 21
4.552449818163185
 31
0.0
  0
LINE
  5
179
330
1F
100
AcDbEntity
  8
0
  6
Continuous
 62
     7
370
    30
100
AcDbLine
 10
8.265611725456441
 20
4.552449818163185
 30
0.0
 11
8.241111708482727
 21
4.566594921424411
 31
0.0
  0
LINE
  5
17A
330
1F
100
AcDbEntity
  8
0
  6
Continuous
 62
     7
370
    30
100
AcDbLine
 10
8.100111743993017
 20
4.566594921424411
 30
0.0
 11
8.075611727019302
 21
4.552449818163185
 31
0.0
  0
LINE
  5
17B
330
1F
100
AcDbEntity
  8
0
  6
Continuous
 62
     7
370
    30
100
AcDbLine
 10
8.075611727019302
 20
4.608005483046069
 30
0.0
 11
8.100111743993017
 21
4.593860379784843
 31
0.0
  0
LINE
  5
17C
330
1F
100
AcDbEntity
  8
0
  6
Continuous
 62
     7
370
    30
100
AcDbLine
 10
8.241111708482727
 20
4.593860379784843
 30
0.0
 11
8.265611725456441
 21
4.608005483046069
 31
0.0
  0
LINE
  5
17D
330
1F
100
AcDbEntity
  8
0
  6
Continuous
 62
     7
370
    30
100
AcDbLine
 10
8.265611725456441
 20
4.663561001263982
 30
0.0
 11
8.241111708482727
 21
4.677706104525209
 31
0.0
  0
LINE
  5
17E
330
1F
100
AcDbEntity
  8
0
  6
Continuous
 62
     7
370
    30
100
AcDbLine
 10
8.100111743993017
 20
4.677706104525209
 30
0.0
 11
8.075611727019302
 21
4.663561001263982
 31
0.0
  0
LINE
  5
17F
330
1F
100
AcDbEntity
  8
0
  6
Continuous
 62
     7
370
    30
100
AcDbLine
 10
8.075611727019302
 20
4.663561001263982
 30
0.0
 11
8.100111743993017
 21
4.649415898002755
 31
0.0
  0
LINE
  5
180
330
1F
100
AcDbEntity
  8
0
  6
Continuous
 62
     7
370
    30
100
AcDbLine
 10
8.241111708482727
 20
4.649415898002755
 30
0.0
 11
8.265611725456441
 21
4.663561001263982
 31
0.0
  0
LINE
  5
181
330
1F
100
AcDbEntity
  8
0
  6
Continuous
 62
     7
370
    30
100
AcDbLine
 10
8.265611725456441
 20
4.608005483046069
 30
0.0
 11
8.241111708482727
 21
4.622150439642324
 31
0.0
  0
LINE
  5
182
330
1F
100
AcDbEntity
  8
0
  6
Continuous
 62
     7
370
    30
100
AcDbLine
 10
8.100111743993017
 20
4.622150439642324
 30
0.0
 11
8.075611727019302
 21
4.608005483046069
 31
0.0
  0
LINE
  5
183
330
1F
100
AcDbEntity
  8
0
  6
Continuous
 62
     7
370
    30
100
AcDbLine
 10
8.265611725456441
 20
4.774672037699808
 30
0.0
 11
8.241111708482727
 21
4.788817140961035
 31
0.0
  0
LINE
  5
184
330
1F
100
AcDbEntity
  8
0
  6
Continuous
 62
     7
370
    30
100
AcDbLine
 10
8.100111743993017
 20
4.788817140961035
 30
0.0
 11
8.075611727019302
 21
4.774672037699808
 31
0.0
  0
LINE
  5
185
330
1F
100
AcDbEntity
  8
0
  6
Continuous
 62
     7
370
    30
100
AcDbLine
 10
8.265611725456441
 20
4.719116519481895
 30
0.0
 11
8.241111708482727
 21
4.733261622743122
 31
0.0
  0
LINE
  5
186
330
1F
100
AcDbEntity
  8
0
  6
Continuous
 62
     7
370
    30
100
AcDbLine
 10
8.100111743993017
 20
4.733261622743122
 30
0.0
 11
8.075611727019302
 21
4.719116519481895
 31
0.0
  0
LINE
  5
187
330
1F
100
AcDbEntity
  8
0
  6
Continuous
 62
     7
370
    30
100
AcDbLine
 10
8.075611727019302
 20
4.774672037699808
 30
0.0
 11
8.100111743993017
 21
4.760526934438581
 31
0.0
  0
LINE
  5
188
330
1F
100
AcDbEntity
  8
0
  6
Continuous
 62
     7
370
    30
100
AcDbLine
 10
8.241111708482727
 20
4.760526934438581
 30
0.0
 11
8.265611725456441
 21
4.774672037699808
 31
0.0
  0
LINE
  5
189
330
1F
100
AcDbEntity
  8
0
  6
Continuous
 62
     7
370
    30
100
AcDbLine
 10
8.075611727019302
 20
4.719116519481895
 30
0.0
 11
8.100111743993017
 21
4.704971416220668
 31
0.0
  0
LINE
  5
18A
330
1F
100
AcDbEntity
  8
0
  6
Continuous
 62
     7
370
    30
100
AcDbLine
 10
8.241111708482727
 20
4.704971416220668
 30
0.0
 11
8.265611725456441
 21
4.719116519481895
 31
0.0
  0
LINE
  5
18B
330
1F
100
AcDbEntity
  8
0
  6
Continuous
 62
     7
370
    30
100
AcDbLine
 10
8.265611725456441
 20
4.830227702582693
 30
0.0
 11
8.241111708482727
 21
4.844372659178948
 31
0.0
  0
LINE
  5
18C
330
1F
100
AcDbEntity
  8
0
  6
Continuous
 62
     7
370
    30
100
AcDbLine
 10
8.100111743993017
 20
4.844372659178948
 30
0.0
 11
8.075611727019302
 21
4.830227702582693
 31
0.0
  0
LINE
  5
18D
330
1F
100
AcDbEntity
  8
0
  6
Continuous
 62
     7
370
    30
100
AcDbLine
 10
8.075611727019302
 20
4.885783220800606
 30
0.0
 11
8.100111743993017
 21
4.871638117539379
 31
0.0
  0
LINE
  5
18E
330
1F
100
AcDbEntity
  8
0
  6
Continuous
 62
     7
370
    30
100
AcDbLine
 10
8.241111708482727
 20
4.871638117539379
 30
0.0
 11
8.265611725456441
 21
4.885783220800606
 31
0.0
  0
LINE
  5
18F
330
1F
100
AcDbEntity
  8
0
  6
Continuous
 62
     7
370
    30
100
AcDbLine
 10
8.265611725456441
 20
4.885783220800606
 30
0.0
 11
8.241111708482727
 21
4.899928324061833
 31
0.0
  0
LINE
  5
190
330
1F
100
AcDbEntity
  8
0
  6
Continuous
 62
     7
370
    30
100
AcDbLine
 10
8.100111743993017
 20
4.899928324061833
 30
0.0
 11
8.075611727019302
 21
4.885783220800606
 31
0.0
  0
LINE
  5
191
330
1F
100
AcDbEntity
  8
0
  6
Continuous
 62
     7
370
    30
100
AcDbLine
 10
8.075611727019302
 20
4.830227702582693
 30
0.0
 11
8.100111743993017
 21
4.816082599321466
 31
0.0
  0
LINE
  5
192
330
1F
100
AcDbEntity
  8
0
  6
Continuous
 62
     7
370
    30
100
AcDbLine
 10
8.241111708482727
 20
4.816082599321466
 30
0.0
 11
8.265611725456441
 21
4.830227702582693
 31
0.0
  0
LINE
  5
193
330
1F
100
AcDbEntity
  8
0
  6
Continuous
 62
     7
370
    30
100
AcDbLine
 10
8.265611725456441
 20
4.941338739018518
 30
0.0
 11
8.241111708482727
 21
4.955483842279746
 31
0.0
  0
LINE
  5
194
330
1F
100
AcDbEntity
  8
0
  6
Continuous
 62
     7
370
    30
100
AcDbLine
 10
8.100111743993017
 20
4.955483842279746
 30
0.0
 11
8.075611727019302
 21
4.941338739018518
 31
0.0
  0
LINE
  5
195
330
1F
100
AcDbEntity
  8
0
  6
Continuous
 62
     7
370
    30
100
AcDbLine
 10
8.075611727019302
 20
4.941338739018518
 30
0.0
 11
8.100111743993017
 21
4.927193635757292
 31
0.0
  0
LINE
  5
196
330
1F
100
AcDbEntity
  8
0
  6
Continuous
 62
     7
370
    30
100
AcDbLine
 10
8.241111708482727
 20
4.927193635757292
 30
0.0
 11
8.265611725456441
 21
4.941338739018518
 31
0.0
  0
LINE
  5
197
330
1F
100
AcDbEntity
  8
0
  6
Continuous
 62
     7
370
    30
100
AcDbLine
 10
8.241111708482727
 20
2.733261610247266
 30
0.0
 11
8.241111708482727
 21
2.760527013608333
 31
0.0
  0
LINE
  5
198
330
1F
100
AcDbEntity
  8
0
  6
Continuous
 62
     7
370
    30
100
AcDbLine
 10
8.100111743993017
 20
2.760527013608333
 30
0.0
 11
8.100111743993017
 21
2.733261610247266
 31
0.0
  0
LINE
  5
199
330
1F
100
AcDbEntity
  8
0
  6
Continuous
 62
     7
370
    30
100
AcDbLine
 10
8.241111708482727
 20
2.844372720015578
 30
0.0
 11
8.241111708482727
 21
2.851560971976278
 31
0.0
  0
LINE
  5
19A
330
1F
100
AcDbEntity
  8
0
  6
Continuous
 62
     7
370
    30
100
AcDbLine
 10
8.100111743993017
 20
2.851560971976278
 30
0.0
 11
8.100111743993017
 21
2.844372720015578
 31
0.0
  0
LINE
  5
19B
330
1F
100
AcDbEntity
  8
0
  6
Continuous
 62
     7
370
    30
100
AcDbLine
 10
8.241111708482727
 20
2.788817165131422
 30
0.0
 11
8.241111708482727
 21
2.816082568492489
 31
0.0
  0
LINE
  5
19C
330
1F
100
AcDbEntity
  8
0
  6
Continuous
 62
     7
370
    30
100
AcDbLine
 10
8.100111743993017
 20
2.816082568492489
 30
0.0
 11
8.100111743993017
 21
2.788817165131422
 31
0.0
  0
LINE
  5
19D
330
1F
100
AcDbEntity
  8
0
  6
Continuous
 62
     7
370
    30
100
AcDbLine
 10
8.241111708482727
 20
3.744560997630446
 30
0.0
 11
8.241111708482727
 21
3.760527019856261
 31
0.0
  0
LINE
  5
19E
330
1F
100
AcDbEntity
  8
0
  6
Continuous
 62
     7
370
    30
100
AcDbLine
 10
8.100111743993017
 20
3.760527019856261
 30
0.0
 11
8.100111743993017
 21
3.744560997630446
 31
0.0
  0
LINE
  5
19F
330
1F
100
AcDbEntity
  8
0
  6
Continuous
 62
     7
370
    30
100
AcDbLine
 10
8.241111708482727
 20
3.788817153046228
 30
0.0
 11
8.241111708482727
 21
3.816082538074174
 31
0.0
  0
LINE
  5
1A0
330
1F
100
AcDbEntity
  8
0
  6
Continuous
 62
     7
370
    30
100
AcDbLine
 10
8.100111743993017
 20
3.816082538074174
 30
0.0
 11
8.100111743993017
 21
3.788817153046228
 31
0.0
  0
LINE
  5
1A1
330
1F
100
AcDbEntity
  8
0
  6
Continuous
 62
     7
370
    30
100
AcDbLine
 10
8.241111708482727
 20
3.89992826281454
 30
0.0
 11
8.241111708482727
 21
3.927193647842486
 31
0.0
  0
LINE
  5
1A2
330
1F
100
AcDbEntity
  8
0
  6
Continuous
 62
     7
370
    30
100
AcDbLine
 10
8.100111743993017
 20
3.927193647842486
 30
0.0
 11
8.100111743993017
 21
3.89992826281454
 31
0.0
  0
LINE
  5
1A3
330
1F
100
AcDbEntity
  8
0
  6
Continuous
 62
     7
370
    30
100
AcDbLine
 10
8.241111708482727
 20
3.844372744596627
 30
0.0
 11
8.241111708482727
 21
3.871638129624573
 31
0.0
  0
LINE
  5
1A4
330
1F
100
AcDbEntity
  8
0
  6
Continuous
 62
     7
370
    30
100
AcDbLine
 10
8.100111743993017
 20
3.871638129624573
 30
0.0
 11
8.100111743993017
 21
3.844372744596627
 31
0.0
  0
LINE
  5
1A5
330
1F
100
AcDbEntity
  8
0
  6
Continuous
 62
     7
370
    30
100
AcDbLine
 10
8.241111708482727
 20
3.955483854364939
 30
0.0
 11
8.241111708482727
 21
3.982749239392885
 31
0.0
  0
LINE
  5
1A6
330
1F
100
AcDbEntity
  8
0
  6
Continuous
 62
     7
370
    30
100
AcDbLine
 10
8.100111743993017
 20
3.982749239392885
 30
0.0
 11
8.100111743993017
 21
3.955483854364939
 31
0.0
  0
LINE
  5
1A7
330
1F
100
AcDbEntity
  8
0
  6
Continuous
 62
     7
370
    30
100
AcDbLine
 10
8.241111708482727
 20
4.011039372582852
 30
0.0
 11
8.241111708482727
 21
4.038304757610797
 31
0.0
  0
LINE
  5
1A8
330
1F
100
AcDbEntity
  8
0
  6
Continuous
 62
     7
370
    30
100
AcDbLine
 10
8.100111743993017
 20
4.038304757610797
 30
0.0
 11
8.100111743993017
 21
4.011039372582852
 31
0.0
  0
LINE
  5
1A9
330
1F
100
AcDbEntity
  8
0
  6
Continuous
 62
     7
370
    30
100
AcDbLine
 10
8.241111708482727
 20
4.066594964133251
 30
0.0
 11
8.241111708482727
 21
4.093860349161196
 31
0.0
  0
LINE
  5
1AA
330
1F
100
AcDbEntity
  8
0
  6
Continuous
 62
     7
370
    30
100
AcDbLine
 10
8.100111743993017
 20
4.093860349161196
 30
0.0
 11
8.100111743993017
 21
4.066594964133251
 31
0.0
  0
LINE
  5
1AB
330
1F
100
AcDbEntity
  8
0
  6
Continuous
 62
     7
370
    30
100
AcDbLine
 10
8.241111708482727
 20
4.122150482351164
 30
0.0
 11
8.241111708482727
 21
4.149415867379109
 31
0.0
  0
LINE
  5
1AC
330
1F
100
AcDbEntity
  8
0
  6
Continuous
 62
     7
370
    30
100
AcDbLine
 10
8.100111743993017
 20
4.149415867379109
 30
0.0
 11
8.100111743993017
 21
4.122150482351164
 31
0.0
  0
LINE
  5
1AD
330
1F
100
AcDbEntity
  8
0
  6
Continuous
 62
     7
370
    30
100
AcDbLine
 10
8.241111708482727
 20
4.177706073901563
 30
0.0
 11
8.241111708482727
 21
4.204971458929508
 31
0.0
  0
LINE
  5
1AE
330
1F
100
AcDbEntity
  8
0
  6
Continuous
 62
     7
370
    30
100
AcDbLine
 10
8.100111743993017
 20
4.204971458929508
 30
0.0
 11
8.100111743993017
 21
4.177706073901563
 31
0.0
  0
LINE
  5
1AF
330
1F
100
AcDbEntity
  8
0
  6
Continuous
 62
     7
370
    30
100
AcDbLine
 10
8.241111708482727
 20
4.233261592119476
 30
0.0
 11
8.241111708482727
 21
4.260526977147421
 31
0.0
  0
LINE
  5
1B0
330
1F
100
AcDbEntity
  8
0
  6
Continuous
 62
     7
370
    30
100
AcDbLine
 10
8.100111743993017
 20
4.260526977147421
 30
0.0
 11
8.100111743993017
 21
4.233261592119476
 31
0.0
  0
LINE
  5
1B1
330
1F
100
AcDbEntity
  8
0
  6
Continuous
 62
     7
370
    30
100
AcDbLine
 10
8.241111708482727
 20
4.288817183669875
 30
0.0
 11
8.241111708482727
 21
4.316082495365334
 31
0.0
  0
LINE
  5
1B2
330
1F
100
AcDbEntity
  8
0
  6
Continuous
 62
     7
370
    30
100
AcDbLine
 10
8.100111743993017
 20
4.316082495365334
 30
0.0
 11
8.100111743993017
 21
4.288817183669875
 31
0.0
  0
LINE
  5
1B3
330
1F
100
AcDbEntity
  8
0
  6
Continuous
 62
     7
370
    30
100
AcDbLine
 10
8.241111708482727
 20
4.344372701887788
 30
0.0
 11
8.241111708482727
 21
4.371638160248219
 31
0.0
  0
LINE
  5
1B4
330
1F
100
AcDbEntity
  8
0
  6
Continuous
 62
     7
370
    30
100
AcDbLine
 10
8.100111743993017
 20
4.371638160248219
 30
0.0
 11
8.100111743993017
 21
4.344372701887788
 31
0.0
  0
LINE
  5
1B5
330
1F
100
AcDbEntity
  8
0
  6
Continuous
 62
     7
370
    30
100
AcDbLine
 10
8.241111708482727
 20
4.455483884988586
 30
0.0
 11
8.241111708482727
 21
4.462560909900857
 31
0.0
  0
LINE
  5
1B6
330
1F
100
AcDbEntity
  8
0
  6
Continuous
 62
     7
370
    30
100
AcDbLine
 10
8.100111743993017
 20
4.462560909900857
 30
0.0
 11
8.100111743993017
 21
4.455483884988586
 31
0.0
  0
LINE
  5
1B7
330
1F
100
AcDbEntity
  8
0
  6
Continuous
 62
     7
370
    30
100
AcDbLine
 10
8.241111708482727
 20
4.3999282201057
 30
0.0
 11
8.241111708482727
 21
4.427193678466132
 31
0.0
  0
LINE
  5
1B8
330
1F
100
AcDbEntity
  8
0
  6
Continuous
 62
     7
370
    30
100
AcDbLine
 10
8.100111743993017
 20
4.427193678466132
 30
0.0
 11
8.100111743993017
 21
4.3999282201057
 31
0.0
  0
LINE
  5
1B9
330
1F
100
AcDbEntity
  8
0
  6
Continuous
 62
     7
370
    30
100
AcDbLine
 10
8.241111708482727
 20
4.566594921424411
 30
0.0
 11
8.241111708482727
 21
4.593860379784843
 31
0.0
  0
LINE
  5
1BA
330
1F
100
AcDbEntity
  8
0
  6
Continuous
 62
     7
370
    30
100
AcDbLine
 10
8.100111743993017
 20
4.593860379784843
 30
0.0
 11
8.100111743993017
 21
4.566594921424411
 31
0.0
  0
LINE
  5
1BB
330
1F
100
AcDbEntity
  8
0
  6
Continuous
 62
     7
370
    30
100
AcDbLine
 10
8.241111708482727
 20
4.677706104525209
 30
0.0
 11
8.241111708482727
 21
4.704971416220668
 31
0.0
  0
LINE
  5
1BC
330
1F
100
AcDbEntity
  8
0
  6
Continuous
 62
     7
370
    30
100
AcDbLine
 10
8.100111743993017
 20
4.704971416220668
 30
0.0
 11
8.100111743993017
 21
4.677706104525209
 31
0.0
  0
LINE
  5
1BD
330
1F
100
AcDbEntity
  8
0
  6
Continuous
 62
     7
370
    30
100
AcDbLine
 10
8.241111708482727
 20
4.622150439642324
 30
0.0
 11
8.241111708482727
 21
4.649415898002755
 31
0.0
  0
LINE
  5
1BE
330
1F
100
AcDbEntity
  8
0
  6
Continuous
 62
     7
370
    30
100
AcDbLine
 10
8.100111743993017
 20
4.649415898002755
 30
0.0
 11
8.100111743993017
 21
4.622150439642324
 31
0.0
  0
LINE
  5
1BF
330
1F
100
AcDbEntity
  8
0
  6
Continuous
 62
     7
370
    30
100
AcDbLine
 10
8.241111708482727
 20
4.733261622743122
 30
0.0
 11
8.241111708482727
 21
4.760526934438581
 31
0.0
  0
LINE
  5
1C0
330
1F
100
AcDbEntity
  8
0
  6
Continuous
 62
     7
370
    30
100
AcDbLine
 10
8.100111743993017
 20
4.760526934438581
 30
0.0
 11
8.100111743993017
 21
4.733261622743122
 31
0.0
  0
LINE
  5
1C1
330
1F
100
AcDbEntity
  8
0
  6
Continuous
 62
     7
370
    30
100
AcDbLine
 10
8.241111708482727
 20
4.788817140961035
 30
0.0
 11
8.241111708482727
 21
4.816082599321466
 31
0.0
  0
LINE
  5
1C2
330
1F
100
AcDbEntity
  8
0
  6
Continuous
 62
     7
370
    30
100
AcDbLine
 10
8.100111743993017
 20
4.816082599321466
 30
0.0
 11
8.100111743993017
 21
4.788817140961035
 31
0.0
  0
LINE
  5
1C3
330
1F
100
AcDbEntity
  8
0
  6
Continuous
 62
     7
370
    30
100
AcDbLine
 10
8.241111708482727
 20
4.899928324061833
 30
0.0
 11
8.241111708482727
 21
4.927193635757292
 31
0.0
  0
LINE
  5
1C4
330
1F
100
AcDbEntity
  8
0
  6
Continuous
 62
     7
370
    30
100
AcDbLine
 10
8.100111743993017
 20
4.927193635757292
 30
0.0
 11
8.100111743993017
 21
4.899928324061833
 31
0.0
  0
LINE
  5
1C5
330
1F
100
AcDbEntity
  8
0
  6
Continuous
 62
     7
370
    30
100
AcDbLine
 10
8.241111708482727
 20
4.955483842279746
 30
0.0
 11
8.241111708482727
 21
4.993358898077203
 31
0.0
  0
LINE
  5
1C6
330
1F
100
AcDbEntity
  8
0
  6
Continuous
 62
     7
370
    30
100
AcDbLine
 10
8.100111743993017
 20
4.993358898077203
 30
0.0
 11
8.100111743993017
 21
4.955483842279746
 31
0.0
  0
LINE
  5
1C7
330
1F
100
AcDbEntity
  8
0
  6
Continuous
 62
     7
370
    30
100
AcDbLine
 10
8.241111708482727
 20
4.993358898077203
 30
0.0
 11
8.17061168957163
 21
5.163560958555142
 31
0.0
  0
LINE
  5
1C8
330
1F
100
AcDbEntity
  8
0
  6
Continuous
 62
     7
370
    30
100
AcDbLine
 10
8.17061168957163
 20
5.163560958555142
 30
0.0
 11
8.100111743993017
 21
4.993358898077203
 31
0.0
  0
LINE
  5
1C9
330
1F
100
AcDbEntity
  8
0
  6
Continuous
 62
     7
370
    30
100
AcDbLine
 10
8.241111708482727
 20
4.844372659178948
 30
0.0
 11
8.241111708482727
 21
4.871638117539379
 31
0.0
  0
LINE
  5
1CA
330
1F
100
AcDbEntity
  8
0
  6
Continuous
 62
     7
370
    30
100
AcDbLine
 10
8.100111743993017
 20
4.871638117539379
 30
0.0
 11
8.100111743993017
 21
4.844372659178948
 31
0.0
  0
LINE
  5
1CB
330
1F
100
AcDbEntity
  8
0
  6
Continuous
 62
     7
370
    30
100
AcDbLine
 10
8.370611709154336
 20
3.10156097812154
 30
0.0
 11
8.370611709154336
 21
3.126560975986098
 31
0.0
  0
LINE
  5
1CC
330
1F
100
AcDbEntity
  8
0
  6
Continuous
 62
     7
370
    30
100
AcDbLine
 10
7.970611706655164
 20
3.126560975986098
 30
0.0
 11
7.970611706655164
 21
3.10156097812154
 31
0.0
  0
LINE
  5
1CD
330
1F
100
AcDbEntity
  8
0
  6
Continuous
 62
     7
370
    30
100
AcDbLine
 10
8.078611685696858
 20
3.012104693715671
 30
0.0
 11
8.078611685696858
 21
3.003983761383541
 31
0.0
  0
LINE
  5
1CE
330
1F
100
AcDbEntity
  8
0
  6
Continuous
 62
     7
370
    30
100
AcDbLine
 10
8.078611685696858
 20
2.976881273015466
 30
0.0
 11
8.078611685696858
 21
2.968760337245876
 31
0.0
  0
LINE
  5
1CF
330
1F
100
AcDbEntity
  8
0
  6
Continuous
 62
     7
370
    30
100
AcDbLine
 10
8.078611685696858
 20
2.941657851169441
 30
0.0
 11
8.078611685696858
 21
2.93353691081657
 31
0.0
  0
LINE
  5
1D0
330
1F
100
AcDbEntity
  8
0
  6
Continuous
 62
     7
370
    30
100
AcDbLine
 10
8.078611685696858
 20
2.906434424740136
 30
0.0
 11
8.078611685696858
 21
2.898313493553826
 31
0.0
  0
LINE
  5
1D1
330
1F
100
AcDbEntity
  8
0
  6
Continuous
 62
     7
370
    30
100
AcDbLine
 10
8.078611685696858
 20
2.87121099831083
 30
0.0
 11
8.078611685696858
 21
2.86309006712452
 31
0.0
  0
LINE
  5
1D2
330
1F
100
AcDbEntity
  8
0
  6
Continuous
 62
     7
370
    30
100
AcDbLine
 10
8.2626116934464
 20
2.851560971976278
 30
0.0
 11
8.2626116934464
 21
2.851803189178164
 31
0.0
  0
LINE
  5
1D3
330
1F
100
AcDbEntity
  8
0
  6
Continuous
 62
     7
370
    30
100
AcDbLine
 10
8.2626116934464
 20
2.87894135150913
 30
0.0
 11
8.2626116934464
 21
2.88702661560747
 31
0.0
  0
LINE
  5
1D4
330
1F
100
AcDbEntity
  8
0
  6
Continuous
 62
     7
370
    30
100
AcDbLine
 10
8.2626116934464
 20
2.914164768771875
 30
0.0
 11
8.2626116934464
 21
2.922250032870214
 31
0.0
  0
LINE
  5
1D5
330
1F
100
AcDbEntity
  8
0
  6
Continuous
 62
     7
370
    30
100
AcDbLine
 10
8.2626116934464
 20
2.94938819520118
 30
0.0
 11
8.2626116934464
 21
2.95747345929952
 31
0.0
  0
LINE
  5
1D6
330
1F
100
AcDbEntity
  8
0
  6
Continuous
 62
     7
370
    30
100
AcDbLine
 10
8.2626116934464
 20
2.984611617047206
 30
0.0
 11
8.2626116934464
 21
2.992696883437185
 31
0.0
  0
LINE
  5
1D7
330
1F
100
AcDbEntity
  8
0
  6
Continuous
 62
     7
370
    30
100
AcDbLine
 10
8.2626116934464
 20
3.019835041184871
 30
0.0
 11
8.2626116934464
 21
3.027920307431623
 31
0.0
  0
LINE
  5
1D8
330
1F
100
AcDbEntity
  8
0
  6
Continuous
 62
     7
370
    30
100
AcDbLine
 10
9.620611712380965
 20
3.10156097812154
 30
0.0
 11
9.620611712380965
 21
3.126560975986098
 31
0.0
  0
LINE
  5
1D9
330
1F
100
AcDbEntity
  8
0
  6
Continuous
 62
     7
370
    30
100
AcDbLine
 10
9.220611709881794
 20
3.126560975986098
 30
0.0
 11
9.220611709881794
 21
3.10156097812154
 31
0.0
  0
LINE
  5
1DA
330
1F
100
AcDbEntity
  8
0
  6
Continuous
 62
     7
370
    30
100
AcDbLine
 10
9.32861172558973
 20
3.012104693715671
 30
0.0
 11
9.32861172558973
 21
3.003983761383541
 31
0.0
  0
LINE
  5
1DB
330
1F
100
AcDbEntity
  8
0
  6
Continuous
 62
     7
370
    30
100
AcDbLine
 10
9.32861172558973
 20
2.976881273015466
 30
0.0
 11
9.32861172558973
 21
2.968760337245876
 31
0.0
  0
LINE
  5
1DC
330
1F
100
AcDbEntity
  8
0
  6
Continuous
 62
     7
370
    30
100
AcDbLine
 10
9.32861172558973
 20
2.941657851169441
 30
0.0
 11
9.32861172558973
 21
2.93353691081657
 31
0.0
  0
LINE
  5
1DD
330
1F
100
AcDbEntity
  8
0
  6
Continuous
 62
     7
370
    30
100
AcDbLine
 10
9.32861172558973
 20
2.906434424740136
 30
0.0
 11
9.32861172558973
 21
2.898313493553826
 31
0.0
  0
LINE
  5
1DE
330
1F
100
AcDbEntity
  8
0
  6
Continuous
 62
     7
370
    30
100
AcDbLine
 10
9.32861172558973
 20
2.87121099831083
 30
0.0
 11
9.32861172558973
 21
2.86309006712452
 31
0.0
  0
LINE
  5
1DF
330
1F
100
AcDbEntity
  8
0
  6
Continuous
 62
     7
370
    30
100
AcDbLine
 10
9.512611733339272
 20
2.851560971976278
 30
0.0
 11
9.512611733339272
 21
2.851803189178164
 31
0.0
  0
LINE
  5
1E0
330
1F
100
AcDbEntity
  8
0
  6
Continuous
 62
     7
370
    30
100
AcDbLine
 10
9.512611733339272
 20
2.87894135150913
 30
0.0
 11
9.512611733339272
 21
2.88702661560747
 31
0.0
  0
LINE
  5
1E1
330
1F
100
AcDbEntity
  8
0
  6
Continuous
 62
     7
370
    30
100
AcDbLine
 10
9.512611733339272
 20
2.914164768771875
 30
0.0
 11
9.512611733339272
 21
2.922250032870214
 31
0.0
  0
LINE
  5
1E2
330
1F
100
AcDbEntity
  8
0
  6
Continuous
 62
     7
370
    30
100
AcDbLine
 10
9.512611733339272
 20
2.94938819520118
 30
0.0
 11
9.512611733339272
 21
2.95747345929952
 31
0.0
  0
LINE
  5
1E3
330
1F
100
AcDbEntity
  8
0
  6
Continuous
 62
     7
370
    30
100
AcDbLine
 10
9.512611733339272
 20
2.984611617047206
 30
0.0
 11
9.512611733339272
 21
2.992696883437185
 31
0.0
  0
LINE
  5
1E4
330
1F
100
AcDbEntity
  8
0
  6
Continuous
 62
     7
370
    30
100
AcDbLine
 10
9.512611733339272
 20
3.019835041184871
 30
0.0
 11
9.512611733339272
 21
3.027920307431623
 31
0.0
  0
LINE
  5
1E5
330
1F
100
AcDbEntity
  8
0
  6
Continuous
 62
     7
370
    30
100
AcDbLine
 10
10.51436165437203
 20
2.494060976846728
 30
0.0
 11
10.51436165437203
 21
10.38793608612785
 31
0.0
  0
LINE
  5
1E6
330
1F
100
AcDbEntity
  8
0
  6
Continuous
 62
     7
370
    30
100
AcDbLine
 10
10.04636164741472
 20
3.052748948043944
 30
0.0
 11
10.39816442335903
 21
2.462078919639516
 31
0.0
  0
LINE
  5
1E7
330
1F
100
AcDbEntity
  8
0
  6
Continuous
 62
     7
370
    30
100
AcDbLine
 10
10.04636164741472
 20
3.052748948043944
 30
0.0
 11
10.07041807617947
 21
3.067076912734406
 31
0.0
  0
LINE
  5
1E8
330
1F
100
AcDbEntity
  8
0
  6
Continuous
 62
     7
370
    30
100
AcDbLine
 10
10.07041807617947
 20
3.067076912734406
 30
0.0
 11
10.42222085212378
 21
2.476406877455058
 31
0.0
  0
ARC
  5
1E9
330
1F
100
AcDbEntity
  8
0
  6
Continuous
 62
     7
370
    30
100
AcDbCircle
 10
10.45186170951806
 20
2.494060976913373
 30
0.0
 40
0.0345000000000013
100
AcDbArc
 50
210.7780028443007
 51
0.0
  0
LINE
  5
1EA
330
1F
100
AcDbEntity
  8
0
  6
Continuous
 62
     7
370
    30
100
AcDbLine
 10
10.48636169782992
 20
2.494060976846728
 30
0.0
 11
10.48636169782992
 21
10.38793608612785
 31
0.0
  0
ARC
  5
1EB
330
1F
100
AcDbEntity
  8
0
  6
Continuous
 62
     7
370
    30
100
AcDbCircle
 10
10.47073670951806
 20
10.38793597691337
 30
0.0
 40
0.0156250000000018
100
AcDbArc
 50
0.0
 51
90.0
  0
LINE
  5
1EC
330
1F
100
AcDbEntity
  8
0
  6
Continuous
 62
     7
370
    30
100
AcDbLine
 10
10.47073674499738
 20
10.40356118562537
 30
0.0
 11
7.120486674038752
 21
10.40356118562537
 31
0.0
  0
ARC
  5
1ED
330
1F
100
AcDbEntity
  8
0
  6
Continuous
 62
     7
370
    30
100
AcDbCircle
 10
7.120486709518066
 20
10.38793597691337
 30
0.0
 40
0.0156250000000018
100
AcDbArc
 50
90.0
 51
180.0
  0
LINE
  5
1EE
330
1F
100
AcDbEntity
  8
0
  6
Continuous
 62
     7
370
    30
100
AcDbLine
 10
7.104861721206207
 20
10.38793608612785
 30
0.0
 11
7.104861721206207
 21
10.02156111852275
 31
0.0
  0
ARC
  5
1EF
330
1F
100
AcDbEntity
  8
0
  6
Continuous
 62
     7
370
    30
100
AcDbCircle
 10
6.986751473294023
 20
10.02156097691337
 30
0.0
 40
0.1181102362204731
100
AcDbArc
 50
270.0000000000008
 51
0.0
  0
LINE
  5
1F0
330
1F
100
AcDbEntity
  8
0
  6
Continuous
 62
     7
370
    30
100
AcDbLine
 10
6.986751538958445
 20
9.903450642945037
 30
0.0
 11
5.951861787426498
 21
9.903450642945037
 31
0.0
  0
LINE
  5
1F1
330
1F
100
AcDbEntity
  8
0
  6
Continuous
 62
     7
370
    30
100
AcDbLine
 10
5.951861787426498
 20
9.931450746152123
 30
0.0
 11
5.951861787426498
 21
9.903450642945037
 31
0.0
  0
LINE
  5
1F2
330
1F
100
AcDbEntity
  8
0
  6
Continuous
 62
     7
370
    30
100
AcDbLine
 10
6.986751538958445
 20
9.931450746152123
 30
0.0
 11
5.951861787426498
 21
9.931450746152123
 31
0.0
  0
ARC
  5
1F3
330
1F
100
AcDbEntity
  8
0
  6
Continuous
 62
     7
370
    30
100
AcDbCircle
 10
6.986751473294023
 20
10.02156097691337
 30
0.0
 40
0.0901102362204718
100
AcDbArc
 50
270.0000000000008
 51
0.0
  0
LINE
  5
1F4
330
1F
100
AcDbEntity
  8
0
  6
Continuous
 62
     7
370
    30
100
AcDbLine
 10
7.076861764664095
 20
10.38793608612785
 30
0.0
 11
7.076861764664095
 21
10.02156111852275
 31
0.0
  0
ARC
  5
1F5
330
1F
100
AcDbEntity
  8
0
  6
Continuous
 62
     7
370
    30
100
AcDbCircle
 10
7.120486709518066
 20
10.38793597691337
 30
0.0
 40
0.0436250000000005
100
AcDbArc
 50
90.0
 51
180.0
  0
LINE
  5
1F6
330
1F
100
AcDbEntity
  8
0
  6
Continuous
 62
     7
370
    30
100
AcDbLine
 10
10.47073674499738
 20
10.43156070217257
 30
0.0
 11
7.120486674038752
 21
10.43156070217257
 31
0.0
  0
ARC
  5
1F7
330
1F
100
AcDbEntity
  8
0
  6
Continuous
 62
     7
370
    30
100
AcDbCircle
 10
10.47073670951806
 20
10.38793597691337
 30
0.0
 40
0.0436250000000022
100
AcDbArc
 50
0.0
 51
90.0
  0
ARC
  5
1F8
330
1F
100
AcDbEntity
  8
0
  6
Continuous
 62
     7
370
    30
100
AcDbCircle
 10
10.45186170951806
 20
2.494060976913373
 30
0.0
 40
0.0625000000000018
100
AcDbArc
 50
210.7780028443004
 51
0.0
  0
ARC
  5
1F9
330
1F
100
AcDbEntity
  8
0
  6
Continuous
 62
     7
370
    30
100
AcDbCircle
 10
7.139361709518064
 20
2.494060976913374
 30
0.0
 40
0.0345000000000004
100
AcDbArc
 50
180.0000000000016
 51
329.221997155701
  0
LINE
  5
1FA
330
1F
100
AcDbEntity
  8
0
  6
Continuous
 62
     7
370
    30
100
AcDbLine
 10
7.169002566912351
 20
2.476406877455058
 30
0.0
 11
7.520805342856662
 21
3.067076912734406
 31
0.0
  0
LINE
  5
1FB
330
1F
100
AcDbEntity
  8
0
  6
Continuous
 62
     7
370
    30
100
AcDbLine
 10
7.520805342856662
 20
3.067076912734406
 30
0.0
 11
7.544861771621411
 21
3.052748948043944
 31
0.0
  0
LINE
  5
1FC
330
1F
100
AcDbEntity
  8
0
  6
Continuous
 62
     7
370
    30
100
AcDbLine
 10
7.1930589956771
 20
2.462078919639516
 30
0.0
 11
7.544861771621411
 21
3.052748948043944
 31
0.0
  0
ARC
  5
1FD
330
1F
100
AcDbEntity
  8
0
  6
Continuous
 62
     7
370
    30
100
AcDbCircle
 10
7.139361709518064
 20
2.494060976913374
 30
0.0
 40
0.0625000000000009
100
AcDbArc
 50
180.0
 51
329.2219971557009
  0
LINE
  5
1FE
330
1F
100
AcDbEntity
  8
0
  6
Continuous
 62
     7
370
    30
100
AcDbLine
 10
7.076861764664095
 20
4.591340528894375
 30
0.0
 11
7.076861764664095
 21
2.494060976846728
 31
0.0
  0
ARC
  5
1FF
330
1F
100
AcDbEntity
  8
0
  6
Continuous
 62
     7
370
    30
100
AcDbCircle
 10
6.986751473294023
 20
4.591340504472427
 30
0.0
 40
0.0901102362204727
100
AcDbArc
 50
0.0
 51
90.0
  0
LINE
  5
200
330
1F
100
AcDbEntity
  8
0
  6
Continuous
 62
     7
370
    30
100
AcDbLine
 10
5.951861787426498
 20
4.681450754600025
 30
0.0
 11
6.986751538958445
 21
4.681450754600025
 31
0.0
  0
LINE
  5
201
330
1F
100
AcDbEntity
  8
0
  6
Continuous
 62
     7
370
    30
100
AcDbLine
 10
5.951861787426498
 20
4.709450711142138
 30
0.0
 11
5.951861787426498
 21
4.681450754600025
 31
0.0
  0
LINE
  5
202
330
1F
100
AcDbEntity
  8
0
  6
Continuous
 62
     7
370
    30
100
AcDbLine
 10
5.951861787426498
 20
4.709450711142138
 30
0.0
 11
6.986751538958445
 21
4.709450711142138
 31
0.0
  0
ARC
  5
203
330
1F
100
AcDbEntity
  8
0
  6
Continuous
 62
     7
370
    30
100
AcDbCircle
 10
6.986751473294023
 20
4.591340504472427
 30
0.0
 40
0.1181102362204731
100
AcDbArc
 50
0.0
 51
90.0
  0
LINE
  5
204
330
1F
100
AcDbEntity
  8
0
  6
Continuous
 62
     7
370
    30
100
AcDbLine
 10
7.104861721206207
 20
4.591340528894375
 30
0.0
 11
7.104861721206207
 21
2.494060976846728
 31
0.0
  0
LINE
  5
205
330
1F
100
AcDbEntity
  8
0
  6
Continuous
 62
     7
370
    30
100
AcDbLine
 10
6.986751538958445
 20
9.903450642945037
 30
0.0
 11
6.986751538958445
 21
4.709450711142138
 31
0.0
  0
LINE
  5
206
330
1F
100
AcDbEntity
  8
0
  6
Continuous
 62
     7
370
    30
100
AcDbLine
 10
7.104861721206207
 20
4.591340528894375
 30
0.0
 11
7.104861721206207
 21
10.02156111852275
 31
0.0
  0
LINE
  5
207
330
1F
100
AcDbEntity
  8
0
  6
Continuous
 62
     7
370
    30
100
AcDbLine
 10
5.951861787426498
 20
9.903450642945037
 30
0.0
 11
5.951861787426498
 21
4.709450711142138
 31
0.0
  0
LINE
  5
208
330
1F
100
AcDbEntity
  8
0
  6
Continuous
 62
     7
370
    30
100
AcDbLine
 10
7.980611691134491
 20
2.695560975768213
 30
0.0
 11
7.980611691134491
 21
2.81338156802801
 31
0.0
  0
ARC
  5
209
330
1F
100
AcDbEntity
  8
0
  6
Continuous
 62
     7
370
    30
100
AcDbCircle
 10
7.71261170951807
 20
2.695560976913363
 30
0.0
 40
0.2680000000000007
100
AcDbArc
 50
296.7854683781347
 51
0.0
  0
ARC
  5
20A
330
1F
100
AcDbEntity
  8
0
  6
Continuous
 62
     7
370
    30
100
AcDbCircle
 10
7.853665517723749
 20
2.416145832029132
 30
0.0
 40
0.0449999999999999
100
AcDbArc
 50
116.7854683781338
 51
188.0229869068666
  0
ARC
  5
20B
330
1F
100
AcDbEntity
  8
0
  6
Continuous
 62
     7
370
    30
100
AcDbCircle
 10
8.162611709518071
 20
2.459691791379992
 30
0.0
 40
0.3570000000000008
100
AcDbArc
 50
188.0229869068666
 51
261.1501169015716
  0
ARC
  5
20C
330
1F
100
AcDbEntity
  8
0
  6
Continuous
 62
     7
370
    30
100
AcDbCircle
 10
8.11261170951807
 20
2.138560976913364
 30
0.0
 40
0.0320000000000005
100
AcDbArc
 50
261.1501169015709
 51
0.0
  0
LINE
  5
20D
330
1F
100
AcDbEntity
  8
0
  6
Continuous
 62
     7
370
    30
100
AcDbLine
 10
8.144611729925382
 20
2.268560941842375
 30
0.0
 11
8.144611729925382
 21
2.138560996946166
 31
0.0
  0
LINE
  5
20E
330
1F
100
AcDbEntity
  8
0
  6
Continuous
 62
     7
370
    30
100
AcDbLine
 10
8.144611729925382
 20
2.268560941842375
 30
0.0
 11
8.162611701988167
 21
2.268560941842375
 31
0.0
  0
LINE
  5
20F
330
1F
100
AcDbEntity
  8
0
  6
Continuous
 62
     7
370
    30
100
AcDbLine
 10
8.162611701988167
 20
2.268560941842375
 30
0.0
 11
8.162611701988167
 21
2.138560996946166
 31
0.0
  0
ARC
  5
210
330
1F
100
AcDbEntity
  8
0
  6
Continuous
 62
     7
370
    30
100
AcDbCircle
 10
8.11261170951807
 20
2.138560976913364
 30
0.0
 40
0.0500000000000007
100
AcDbArc
 50
261.1501169015718
 51
0.0
  0
ARC
  5
211
330
1F
100
AcDbEntity
  8
0
  6
Continuous
 62
     7
370
    30
100
AcDbCircle
 10
8.162611709518071
 20
2.459691791379992
 30
0.0
 40
0.3750000000000002
100
AcDbArc
 50
188.0229869068665
 51
261.1501169015717
  0
ARC
  5
212
330
1F
100
AcDbEntity
  8
0
  6
Continuous
 62
     7
370
    30
100
AcDbCircle
 10
7.853665517723749
 20
2.416145832029132
 30
0.0
 40
0.0630000000000007
100
AcDbArc
 50
116.7854683781338
 51
188.0229869068661
  0
ARC
  5
213
330
1F
100
AcDbEntity
  8
0
  6
Continuous
 62
     7
370
    30
100
AcDbCircle
 10
7.71261170951807
 20
2.695560976913363
 30
0.0
 40
0.2500000000000009
100
AcDbArc
 50
296.7854683781347
 51
0.0
  0
LINE
  5
214
330
1F
100
AcDbEntity
  8
0
  6
Continuous
 62
     7
370
    30
100
AcDbLine
 10
7.962611719071703
 20
2.695560975768213
 30
0.0
 11
7.962611719071703
 21
2.81338156802801
 31
0.0
  0
ARC
  5
215
330
1F
100
AcDbEntity
  8
0
  6
Continuous
 62
     7
370
    30
100
AcDbCircle
 10
8.01261170951807
 20
2.813381564206005
 30
0.0
 40
0.0500000000000005
100
AcDbArc
 50
119.835560223184
 51
180.0
  0
ARC
  5
216
330
1F
100
AcDbEntity
  8
0
  6
Continuous
 62
     7
370
    30
100
AcDbCircle
 10
7.962611709518071
 20
2.900560976913364
 30
0.0
 40
0.0505000000000004
100
AcDbArc
 50
299.8355602231841
 51
109.9999999999999
  0
LINE
  5
217
330
1F
100
AcDbEntity
  8
0
  6
Continuous
 62
     7
370
    30
100
AcDbLine
 10
7.945339718599327
 20
2.948015456892504
 30
0.0
 11
7.939183309718688
 21
2.96492992024518
 31
0.0
  0
ARC
  5
218
330
1F
100
AcDbEntity
  8
0
  6
Continuous
 62
     7
370
    30
100
AcDbCircle
 10
7.962611709518071
 20
2.900560976913364
 30
0.0
 40
0.0685
100
AcDbArc
 50
299.8355602231842
 51
110.0
  0
ARC
  5
219
330
1F
100
AcDbEntity
  8
0
  6
Continuous
 62
     7
370
    30
100
AcDbCircle
 10
8.01261170951807
 20
2.813381564206005
 30
0.0
 40
0.0320000000000004
100
AcDbArc
 50
119.8355602231843
 51
180.0
  0
ARC
  5
21A
330
1F
100
AcDbEntity
  8
0
  6
Continuous
 62
     7
370
    30
100
AcDbCircle
 10
8.37861170951806
 20
2.90056097691336
 30
0.0
 40
0.0505
100
AcDbArc
 50
69.9999999999999
 51
240.1644397768166
  0
ARC
  5
21B
330
1F
100
AcDbEntity
  8
0
  6
Continuous
 62
     7
370
    30
100
AcDbCircle
 10
8.328611709518059
 20
2.813381564206002
 30
0.0
 40
0.0500000000000007
100
AcDbArc
 50
0.0
 51
60.16443977681596
  0
LINE
  5
21C
330
1F
100
AcDbEntity
  8
0
  6
Continuous
 62
     7
370
    30
100
AcDbLine
 10
8.378611696737796
 20
2.81338156802801
 30
0.0
 11
8.378611696737796
 21
2.695560975768213
 31
0.0
  0
ARC
  5
21D
330
1F
100
AcDbEntity
  8
0
  6
Continuous
 62
     7
370
    30
100
AcDbCircle
 10
8.62861170951806
 20
2.69556097691336
 30
0.0
 40
0.2500000000000001
100
AcDbArc
 50
180.0
 51
243.2145316218667
  0
ARC
  5
21E
330
1F
100
AcDbEntity
  8
0
  6
Continuous
 62
     7
370
    30
100
AcDbCircle
 10
8.48755790131238
 20
2.41614583202913
 30
0.0
 40
0.0630000000000003
100
AcDbArc
 50
351.9770130931348
 51
63.21453162186601
  0
ARC
  5
21F
330
1F
100
AcDbEntity
  8
0
  6
Continuous
 62
     7
370
    30
100
AcDbCircle
 10
8.17861170951806
 20
2.459691791379989
 30
0.0
 40
0.3749999999999994
100
AcDbArc
 50
278.8498830984297
 51
351.977013093135
  0
ARC
  5
220
330
1F
100
AcDbEntity
  8
0
  6
Continuous
 62
     7
370
    30
100
AcDbCircle
 10
8.22861170951806
 20
2.13856097691336
 30
0.0
 40
0.0499999999999994
100
AcDbArc
 50
180.0
 51
278.8498830984299
  0
LINE
  5
221
330
1F
100
AcDbEntity
  8
0
  6
Continuous
 62
     7
370
    30
100
AcDbLine
 10
8.17861167715509
 20
2.138560996946166
 30
0.0
 11
8.17861167715509
 21
2.268560941842375
 31
0.0
  0
LINE
  5
222
330
1F
100
AcDbEntity
  8
0
  6
Continuous
 62
     7
370
    30
100
AcDbLine
 10
8.17861167715509
 20
2.268560941842375
 30
0.0
 11
8.196611722550362
 21
2.268560941842375
 31
0.0
  0
LINE
  5
223
330
1F
100
AcDbEntity
  8
0
  6
Continuous
 62
     7
370
    30
100
AcDbLine
 10
8.196611722550362
 20
2.138560996946166
 30
0.0
 11
8.196611722550362
 21
2.268560941842375
 31
0.0
  0
ARC
  5
224
330
1F
100
AcDbEntity
  8
0
  6
Continuous
 62
     7
370
    30
100
AcDbCircle
 10
8.22861170951806
 20
2.13856097691336
 30
0.0
 40
0.032
100
AcDbArc
 50
180.0
 51
278.849883098431
  0
ARC
  5
225
330
1F
100
AcDbEntity
  8
0
  6
Continuous
 62
     7
370
    30
100
AcDbCircle
 10
8.17861170951806
 20
2.459691791379989
 30
0.0
 40
0.3569999999999998
100
AcDbArc
 50
278.8498830984298
 51
351.977013093135
  0
ARC
  5
226
330
1F
100
AcDbEntity
  8
0
  6
Continuous
 62
     7
370
    30
100
AcDbCircle
 10
8.48755790131238
 20
2.41614583202913
 30
0.0
 40
0.0450000000000002
100
AcDbArc
 50
351.9770130931352
 51
63.21453162186619
  0
ARC
  5
227
330
1F
100
AcDbEntity
  8
0
  6
Continuous
 62
     7
370
    30
100
AcDbCircle
 10
8.62861170951806
 20
2.69556097691336
 30
0.0
 40
0.2680000000000007
100
AcDbArc
 50
180.0
 51
243.2145316218667
  0
LINE
  5
228
330
1F
100
AcDbEntity
  8
0
  6
Continuous
 62
     7
370
    30
100
AcDbLine
 10
8.36061172467501
 20
2.81338156802801
 30
0.0
 11
8.36061172467501
 21
2.695560975768213
 31
0.0
  0
ARC
  5
229
330
1F
100
AcDbEntity
  8
0
  6
Continuous
 62
     7
370
    30
100
AcDbCircle
 10
8.328611709518059
 20
2.813381564206002
 30
0.0
 40
0.032
100
AcDbArc
 50
0.0
 51
60.1644397768167
  0
ARC
  5
22A
330
1F
100
AcDbEntity
  8
0
  6
Continuous
 62
     7
370
    30
100
AcDbCircle
 10
8.37861170951806
 20
2.90056097691336
 30
0.0
 40
0.0685000000000008
100
AcDbArc
 50
69.99999999999999
 51
240.1644397768163
  0
LINE
  5
22B
330
1F
100
AcDbEntity
  8
0
  6
Continuous
 62
     7
370
    30
100
AcDbLine
 10
8.402040106090812
 20
2.96492992024518
 30
0.0
 11
8.395883733876417
 21
2.948015456892504
 31
0.0
  0
LINE
  5
22C
330
1F
100
AcDbEntity
  8
0
  6
Continuous
 62
     7
370
    30
100
AcDbLine
 10
8.264541877815413
 20
2.809608886610348
 30
0.0
 11
8.24418070969603
 21
2.797853359077872
 31
0.0
  0
LINE
  5
22D
330
1F
100
AcDbEntity
  8
0
  6
Continuous
 62
     7
370
    30
100
AcDbLine
 10
8.264541877815413
 20
2.815465383955591
 30
0.0
 11
8.264541877815413
 21
2.809608886610348
 31
0.0
  0
LINE
  5
22E
330
1F
100
AcDbEntity
  8
0
  6
Continuous
 62
     7
370
    30
100
AcDbLine
 10
8.244181516353379
 20
2.827220434826907
 30
0.0
 11
8.264541877815413
 21
2.815465383955591
 31
0.0
  0
LINE
  5
22F
330
1F
100
AcDbEntity
  8
0
  6
Continuous
 62
     7
370
    30
100
AcDbLine
 10
8.244181516353379
 20
2.833077262168338
 30
0.0
 11
8.244181516353379
 21
2.827220434826907
 31
0.0
  0
LINE
  5
230
330
1F
100
AcDbEntity
  8
0
  6
Continuous
 62
     7
370
    30
100
AcDbLine
 10
8.264541877815413
 20
2.844832313039654
 30
0.0
 11
8.244181516353379
 21
2.833077262168338
 31
0.0
  0
LINE
  5
231
330
1F
100
AcDbEntity
  8
0
  6
Continuous
 62
     7
370
    30
100
AcDbLine
 10
8.264541877815413
 20
2.850688792051775
 30
0.0
 11
8.264541877815413
 21
2.844832313039654
 31
0.0
  0
LINE
  5
232
330
1F
100
AcDbEntity
  8
0
  6
Continuous
 62
     7
370
    30
100
AcDbLine
 10
8.244181516353379
 20
2.862443861256212
 30
0.0
 11
8.264541877815413
 21
2.850688792051775
 31
0.0
  0
LINE
  5
233
330
1F
100
AcDbEntity
  8
0
  6
Continuous
 62
     7
370
    30
100
AcDbLine
 10
8.244181516353379
 20
2.868300670264521
 30
0.0
 11
8.244181516353379
 21
2.862443861256212
 31
0.0
  0
LINE
  5
234
330
1F
100
AcDbEntity
  8
0
  6
Continuous
 62
     7
370
    30
100
AcDbLine
 10
8.264541877815413
 20
2.880055739468959
 30
0.0
 11
8.244181516353379
 21
2.868300670264521
 31
0.0
  0
LINE
  5
235
330
1F
100
AcDbEntity
  8
0
  6
Continuous
 62
     7
370
    30
100
AcDbLine
 10
8.264541877815413
 20
2.885912227647641
 30
0.0
 11
8.264541877815413
 21
2.880055739468959
 31
0.0
  0
LINE
  5
236
330
1F
100
AcDbEntity
  8
0
  6
Continuous
 62
     7
370
    30
100
AcDbLine
 10
8.244181516353379
 20
2.897667287685518
 30
0.0
 11
8.264541877815413
 21
2.885912227647641
 31
0.0
  0
LINE
  5
237
330
1F
100
AcDbEntity
  8
0
  6
Continuous
 62
     7
370
    30
100
AcDbLine
 10
8.244181516353379
 20
2.903524096693827
 30
0.0
 11
8.244181516353379
 21
2.897667287685518
 31
0.0
  0
LINE
  5
238
330
1F
100
AcDbEntity
  8
0
  6
Continuous
 62
     7
370
    30
100
AcDbLine
 10
8.264541877815413
 20
2.915279156731704
 30
0.0
 11
8.244181516353379
 21
2.903524096693827
 31
0.0
  0
LINE
  5
239
330
1F
100
AcDbEntity
  8
0
  6
Continuous
 62
     7
370
    30
100
AcDbLine
 10
8.264541877815413
 20
2.921135644910386
 30
0.0
 11
8.264541877815413
 21
2.915279156731704
 31
0.0
  0
LINE
  5
23A
330
1F
100
AcDbEntity
  8
0
  6
Continuous
 62
     7
370
    30
100
AcDbLine
 10
8.244181516353379
 20
2.932890704948262
 30
0.0
 11
8.264541877815413
 21
2.921135644910386
 31
0.0
  0
LINE
  5
23B
330
1F
100
AcDbEntity
  8
0
  6
Continuous
 62
     7
370
    30
100
AcDbLine
 10
8.244181516353379
 20
2.938747523123133
 30
0.0
 11
8.244181516353379
 21
2.932890704948262
 31
0.0
  0
LINE
  5
23C
330
1F
100
AcDbEntity
  8
0
  6
Continuous
 62
     7
370
    30
100
AcDbLine
 10
8.264541877815413
 20
2.950502583161009
 30
0.0
 11
8.244181516353379
 21
2.938747523123133
 31
0.0
  0
LINE
  5
23D
330
1F
100
AcDbEntity
  8
0
  6
Continuous
 62
     7
370
    30
100
AcDbLine
 10
8.264541877815413
 20
2.956359071339691
 30
0.0
 11
8.264541877815413
 21
2.950502583161009
 31
0.0
  0
LINE
  5
23E
330
1F
100
AcDbEntity
  8
0
  6
Continuous
 62
     7
370
    30
100
AcDbLine
 10
8.244181516353379
 20
2.968114131377568
 30
0.0
 11
8.264541877815413
 21
2.956359071339691
 31
0.0
  0
LINE
  5
23F
330
1F
100
AcDbEntity
  8
0
  6
Continuous
 62
     7
370
    30
100
AcDbLine
 10
8.244181516353379
 20
2.973970949552438
 30
0.0
 11
8.244181516353379
 21
2.968114131377568
 31
0.0
  0
LINE
  5
240
330
1F
100
AcDbEntity
  8
0
  6
Continuous
 62
     7
370
    30
100
AcDbLine
 10
8.264541877815413
 20
2.985726009590314
 30
0.0
 11
8.244181516353379
 21
2.973970949552438
 31
0.0
  0
LINE
  5
241
330
1F
100
AcDbEntity
  8
0
  6
Continuous
 62
     7
370
    30
100
AcDbLine
 10
8.264541877815413
 20
2.991582493185716
 30
0.0
 11
8.264541877815413
 21
2.985726009590314
 31
0.0
  0
LINE
  5
242
330
1F
100
AcDbEntity
  8
0
  6
Continuous
 62
     7
370
    30
100
AcDbLine
 10
8.244181516353379
 20
3.003337553223593
 30
0.0
 11
8.264541877815413
 21
2.991582493185716
 31
0.0
  0
LINE
  5
243
330
1F
100
AcDbEntity
  8
0
  6
Continuous
 62
     7
370
    30
100
AcDbLine
 10
8.244181516353379
 20
3.009194371398463
 30
0.0
 11
8.244181516353379
 21
3.003337553223593
 31
0.0
  0
LINE
  5
244
330
1F
100
AcDbEntity
  8
0
  6
Continuous
 62
     7
370
    30
100
AcDbLine
 10
8.264541877815413
 20
3.02094943086343
 30
0.0
 11
8.244181516353379
 21
3.009194371398463
 31
0.0
  0
LINE
  5
245
330
1F
100
AcDbEntity
  8
0
  6
Continuous
 62
     7
370
    30
100
AcDbLine
 10
8.264541877815413
 20
3.026805917323382
 30
0.0
 11
8.264541877815413
 21
3.02094943086343
 31
0.0
  0
LINE
  5
246
330
1F
100
AcDbEntity
  8
0
  6
Continuous
 62
     7
370
    30
100
AcDbLine
 10
8.244181516353379
 20
3.038560977361259
 30
0.0
 11
8.264541877815413
 21
3.026805917323382
 31
0.0
  0
LINE
  5
247
330
1F
100
AcDbEntity
  8
0
  6
Continuous
 62
     7
370
    30
100
AcDbLine
 10
8.358611727779145
 20
3.038560977361259
 30
0.0
 11
8.244181516353379
 21
3.038560977361259
 31
0.0
  0
ARC
  5
248
330
1F
100
AcDbEntity
  8
0
  6
Continuous
 62
     7
370
    30
100
AcDbCircle
 10
8.358611709518065
 20
2.97656097691337
 30
0.0
 40
0.0619999999999994
100
AcDbArc
 50
0.0
 51
90.0
  0
ARC
  5
249
330
1F
100
AcDbEntity
  8
0
  6
Continuous
 62
     7
370
    30
100
AcDbCircle
 10
8.410611709518076
 20
2.974971997602497
 30
0.0
 40
0.0099999999999901
100
AcDbArc
 50
246.7301760414994
 51
359.9999999999627
  0
ARC
  5
24A
330
1F
100
AcDbEntity
  8
0
  6
Continuous
 62
     7
370
    30
100
AcDbCircle
 10
8.37861170951806
 20
2.90056097691336
 30
0.0
 40
0.0710000000000108
100
AcDbArc
 50
66.73017604154505
 51
232.4184423812513
  0
ARC
  5
24B
330
1F
100
AcDbEntity
  8
0
  6
Continuous
 62
     7
370
    30
100
AcDbCircle
 10
8.323111709518066
 20
2.828444751277222
 30
0.0
 40
0.0199999999999982
100
AcDbArc
 50
359.9999999999983
 51
52.41844238125047
  0
LINE
  5
24C
330
1F
100
AcDbEntity
  8
0
  6
Continuous
 62
     7
370
    30
100
AcDbLine
 10
8.343111696836825
 20
2.663560988768126
 30
0.0
 11
8.343111696836825
 21
2.828444757350095
 31
0.0
  0
LINE
  5
24D
330
1F
100
AcDbEntity
  8
0
  6
Continuous
 62
     7
370
    30
100
AcDbLine
 10
7.998111682306432
 20
2.663560988768126
 30
0.0
 11
8.343111696836825
 21
2.663560988768126
 31
0.0
  0
LINE
  5
24E
330
1F
100
AcDbEntity
  8
0
  6
Continuous
 62
     7
370
    30
100
AcDbLine
 10
7.998111682306432
 20
2.828444757350095
 30
0.0
 11
7.998111682306432
 21
2.663560988768126
 31
0.0
  0
ARC
  5
24F
330
1F
100
AcDbEntity
  8
0
  6
Continuous
 62
     7
370
    30
100
AcDbCircle
 10
8.018111709518065
 20
2.82844475127723
 30
0.0
 40
0.0199999999999996
100
AcDbArc
 50
127.5815576187536
 51
180.0000000000021
  0
ARC
  5
250
330
1F
100
AcDbEntity
  8
0
  6
Continuous
 62
     7
370
    30
100
AcDbCircle
 10
7.962611709518068
 20
2.900560976913364
 30
0.0
 40
0.0710000000000083
100
AcDbArc
 50
307.5815576187536
 51
113.2698239584546
  0
ARC
  5
251
330
1F
100
AcDbEntity
  8
0
  6
Continuous
 62
     7
370
    30
100
AcDbCircle
 10
7.930611709518056
 20
2.974971997602497
 30
0.0
 40
0.0099999999999909
100
AcDbArc
 50
180.000000000039
 51
293.2698239584929
  0
LINE
  5
252
330
1F
100
AcDbEntity
  8
0
  6
Continuous
 62
     7
370
    30
100
AcDbLine
 10
7.920611710926049
 20
2.976560975048909
 30
0.0
 11
7.920611710926049
 21
2.974971997571579
 31
0.0
  0
ARC
  5
253
330
1F
100
AcDbEntity
  8
0
  6
Continuous
 62
     7
370
    30
100
AcDbCircle
 10
7.982611709518064
 20
2.97656097691337
 30
0.0
 40
0.0619999999999994
100
AcDbArc
 50
90.0
 51
180.0000000000016
  0
LINE
  5
254
330
1F
100
AcDbEntity
  8
0
  6
Continuous
 62
     7
370
    30
100
AcDbLine
 10
8.079730959433578
 20
3.038560977361259
 30
0.0
 11
7.982611688030356
 21
3.038560977361259
 31
0.0
  0
LINE
  5
255
330
1F
100
AcDbEntity
  8
0
  6
Continuous
 62
     7
370
    30
100
AcDbLine
 10
8.097011026479436
 20
3.028584348132964
 30
0.0
 11
8.079730959433578
 21
3.038560977361259
 31
0.0
  0
LINE
  5
256
330
1F
100
AcDbEntity
  8
0
  6
Continuous
 62
     7
370
    30
100
AcDbLine
 10
8.097011026479436
 20
3.022727530244549
 30
0.0
 11
8.097011026479436
 21
3.028584348132964
 31
0.0
  0
LINE
  5
257
330
1F
100
AcDbEntity
  8
0
  6
Continuous
 62
     7
370
    30
100
AcDbLine
 10
8.076650628351159
 20
3.010972471066037
 30
0.0
 11
8.097011026479436
 21
3.022727530244549
 31
0.0
  0
LINE
  5
258
330
1F
100
AcDbEntity
  8
0
  6
Continuous
 62
     7
370
    30
100
AcDbLine
 10
8.076650628351159
 20
3.005115985178995
 30
0.0
 11
8.076650628351159
 21
3.010972471066037
 31
0.0
  0
LINE
  5
259
330
1F
100
AcDbEntity
  8
0
  6
Continuous
 62
     7
370
    30
100
AcDbLine
 10
8.097011026479436
 20
2.993360925141119
 30
0.0
 11
8.076650628351159
 21
3.005115985178995
 31
0.0
  0
LINE
  5
25A
330
1F
100
AcDbEntity
  8
0
  6
Continuous
 62
     7
370
    30
100
AcDbLine
 10
8.097011026479436
 20
2.987504106966249
 30
0.0
 11
8.097011026479436
 21
2.993360925141119
 31
0.0
  0
LINE
  5
25B
330
1F
100
AcDbEntity
  8
0
  6
Continuous
 62
     7
370
    30
100
AcDbLine
 10
8.076650628351159
 20
2.975749046928372
 30
0.0
 11
8.097011026479436
 21
2.987504106966249
 31
0.0
  0
LINE
  5
25C
330
1F
100
AcDbEntity
  8
0
  6
Continuous
 62
     7
370
    30
100
AcDbLine
 10
8.076650628351159
 20
2.96989255874969
 30
0.0
 11
8.076650628351159
 21
2.975749046928372
 31
0.0
  0
LINE
  5
25D
330
1F
100
AcDbEntity
  8
0
  6
Continuous
 62
     7
370
    30
100
AcDbLine
 10
8.097011026479436
 20
2.958137503295093
 30
0.0
 11
8.076650628351159
 21
2.96989255874969
 31
0.0
  0
LINE
  5
25E
330
1F
100
AcDbEntity
  8
0
  6
Continuous
 62
     7
370
    30
100
AcDbLine
 10
8.097011026479436
 20
2.952280685120224
 30
0.0
 11
8.097011026479436
 21
2.958137503295093
 31
0.0
  0
LINE
  5
25F
330
1F
100
AcDbEntity
  8
0
  6
Continuous
 62
     7
370
    30
100
AcDbLine
 10
8.076650628351159
 20
2.940525625082347
 30
0.0
 11
8.097011026479436
 21
2.952280685120224
 31
0.0
  0
LINE
  5
260
330
1F
100
AcDbEntity
  8
0
  6
Continuous
 62
     7
370
    30
100
AcDbLine
 10
8.076650628351159
 20
2.934669136903665
 30
0.0
 11
8.076650628351159
 21
2.940525625082347
 31
0.0
  0
LINE
  5
261
330
1F
100
AcDbEntity
  8
0
  6
Continuous
 62
     7
370
    30
100
AcDbLine
 10
8.097011026479436
 20
2.922914076865788
 30
0.0
 11
8.076650628351159
 21
2.934669136903665
 31
0.0
  0
LINE
  5
262
330
1F
100
AcDbEntity
  8
0
  6
Continuous
 62
     7
370
    30
100
AcDbLine
 10
8.097011026479436
 20
2.917057258690918
 30
0.0
 11
8.097011026479436
 21
2.922914076865788
 31
0.0
  0
LINE
  5
263
330
1F
100
AcDbEntity
  8
0
  6
Continuous
 62
     7
370
    30
100
AcDbLine
 10
8.076650628351159
 20
2.905302198653041
 30
0.0
 11
8.097011026479436
 21
2.917057258690918
 31
0.0
  0
LINE
  5
264
330
1F
100
AcDbEntity
  8
0
  6
Continuous
 62
     7
370
    30
100
AcDbLine
 10
8.076650628351159
 20
2.899445710474359
 30
0.0
 11
8.076650628351159
 21
2.905302198653041
 31
0.0
  0
LINE
  5
265
330
1F
100
AcDbEntity
  8
0
  6
Continuous
 62
     7
370
    30
100
AcDbLine
 10
8.097011026479436
 20
2.887690650436483
 30
0.0
 11
8.076650628351159
 21
2.899445710474359
 31
0.0
  0
LINE
  5
266
330
1F
100
AcDbEntity
  8
0
  6
Continuous
 62
     7
370
    30
100
AcDbLine
 10
8.097011026479436
 20
2.881833832261612
 30
0.0
 11
8.097011026479436
 21
2.887690650436483
 31
0.0
  0
LINE
  5
267
330
1F
100
AcDbEntity
  8
0
  6
Continuous
 62
     7
370
    30
100
AcDbLine
 10
8.076650628351159
 20
2.870078781390297
 30
0.0
 11
8.097011026479436
 21
2.881833832261612
 31
0.0
  0
LINE
  5
268
330
1F
100
AcDbEntity
  8
0
  6
Continuous
 62
     7
370
    30
100
AcDbLine
 10
8.076650628351159
 20
2.864222284045054
 30
0.0
 11
8.076650628351159
 21
2.870078781390297
 31
0.0
  0
LINE
  5
269
330
1F
100
AcDbEntity
  8
0
  6
Continuous
 62
     7
370
    30
100
AcDbLine
 10
8.097011026479436
 20
2.852467233173738
 30
0.0
 11
8.076650628351159
 21
2.864222284045054
 31
0.0
  0
LINE
  5
26A
330
1F
100
AcDbEntity
  8
0
  6
Continuous
 62
     7
370
    30
100
AcDbLine
 10
8.097011026479436
 20
2.846610405832307
 30
0.0
 11
8.097011026479436
 21
2.852467233173738
 31
0.0
  0
LINE
  5
26B
330
1F
100
AcDbEntity
  8
0
  6
Continuous
 62
     7
370
    30
100
AcDbLine
 10
8.076650628351159
 20
2.834855354960991
 30
0.0
 11
8.097011026479436
 21
2.846610405832307
 31
0.0
  0
LINE
  5
26C
330
1F
100
AcDbEntity
  8
0
  6
Continuous
 62
     7
370
    30
100
AcDbLine
 10
8.076650628351159
 20
2.82899887594887
 30
0.0
 11
8.076650628351159
 21
2.834855354960991
 31
0.0
  0
LINE
  5
26D
330
1F
100
AcDbEntity
  8
0
  6
Continuous
 62
     7
370
    30
100
AcDbLine
 10
8.097011026479436
 20
2.817243806744433
 30
0.0
 11
8.076650628351159
 21
2.82899887594887
 31
0.0
  0
LINE
  5
26E
330
1F
100
AcDbEntity
  8
0
  6
Continuous
 62
     7
370
    30
100
AcDbLine
 10
8.097011026479436
 20
2.811386997736123
 30
0.0
 11
8.097011026479436
 21
2.817243806744433
 31
0.0
  0
LINE
  5
26F
330
1F
100
AcDbEntity
  8
0
  6
Continuous
 62
     7
370
    30
100
AcDbLine
 10
8.076650628351159
 20
2.799631928531686
 30
0.0
 11
8.097011026479436
 21
2.811386997736123
 31
0.0
  0
LINE
  5
270
330
1F
100
AcDbEntity
  8
0
  6
Continuous
 62
     7
370
    30
100
AcDbLine
 10
8.076650628351159
 20
2.793775449519564
 30
0.0
 11
8.076650628351159
 21
2.799631928531686
 31
0.0
  0
LINE
  5
271
330
1F
100
AcDbEntity
  8
0
  6
Continuous
 62
     7
370
    30
100
AcDbLine
 10
8.081251875197163
 20
2.791118906874838
 30
0.0
 11
8.076650628351159
 21
2.793775449519564
 31
0.0
  0
ARC
  5
272
330
1F
100
AcDbEntity
  8
0
  6
Continuous
 62
     7
370
    30
100
AcDbCircle
 10
8.071578774581047
 20
2.788582999107385
 30
0.0
 40
0.0100000000000095
100
AcDbArc
 50
336.1596651701942
 51
14.69012509412925
  0
ARC
  5
273
330
1F
100
AcDbEntity
  8
0
  6
Continuous
 62
     7
370
    30
100
AcDbCircle
 10
8.088611709518066
 20
2.754560976913369
 30
0.0
 40
0.0310000000000001
100
AcDbArc
 50
104.7376174516021
 51
270.0000000000008
  0
LINE
  5
274
330
1F
100
AcDbEntity
  8
0
  6
Continuous
 62
     7
370
    30
100
AcDbLine
 10
8.252611708967073
 20
2.723560968976569
 30
0.0
 11
8.08861174350867
 21
2.723560968976569
 31
0.0
  0
ARC
  5
275
330
1F
100
AcDbEntity
  8
0
  6
Continuous
 62
     7
370
    30
100
AcDbCircle
 10
8.252611709518064
 20
2.754560976913369
 30
0.0
 40
0.0310000000000001
100
AcDbArc
 50
270.0000000000008
 51
84.55047730486302
  0
LINE
  5
276
330
1F
100
AcDbEntity
  8
0
  6
Continuous
 62
     7
370
    30
100
AcDbLine
 10
8.24418070969603
 20
2.791988245165502
 30
0.0
 11
8.255555751623909
 21
2.785420862699131
 31
0.0
  0
LINE
  5
277
330
1F
100
AcDbEntity
  8
0
  6
Continuous
 62
     7
370
    30
100
AcDbLine
 10
8.24418070969603
 20
2.797853359077872
 30
0.0
 11
8.24418070969603
 21
2.791988245165502
 31
0.0
  0
LINE
  5
278
330
1F
100
AcDbEntity
  8
0
  6
Continuous
 62
     7
370
    30
100
AcDbLine
 10
8.420611704883452
 20
2.974971997571579
 30
0.0
 11
8.420611704883452
 21
2.976560975048909
 31
0.0
  0
LINE
  5
279
330
1F
100
AcDbEntity
  8
0
  6
Continuous
 62
     7
370
    30
100
AcDbLine
 10
9.23061169436112
 20
2.695560975768213
 30
0.0
 11
9.23061169436112
 21
2.81338156802801
 31
0.0
  0
ARC
  5
27A
330
1F
100
AcDbEntity
  8
0
  6
Continuous
 62
     7
370
    30
100
AcDbCircle
 10
8.96261170951807
 20
2.695560976913363
 30
0.0
 40
0.2680000000000008
100
AcDbArc
 50
296.7854683781349
 51
0.0
  0
ARC
  5
27B
330
1F
100
AcDbEntity
  8
0
  6
Continuous
 62
     7
370
    30
100
AcDbCircle
 10
9.10366551772375
 20
2.416145832029132
 30
0.0
 40
0.0450000000000002
100
AcDbArc
 50
116.7854683781338
 51
188.0229869068664
  0
ARC
  5
27C
330
1F
100
AcDbEntity
  8
0
  6
Continuous
 62
     7
370
    30
100
AcDbCircle
 10
9.412611709518071
 20
2.459691791379992
 30
0.0
 40
0.3570000000000008
100
AcDbArc
 50
188.0229869068666
 51
261.1501169015716
  0
ARC
  5
27D
330
1F
100
AcDbEntity
  8
0
  6
Continuous
 62
     7
370
    30
100
AcDbCircle
 10
9.36261170951807
 20
2.138560976913364
 30
0.0
 40
0.0320000000000005
100
AcDbArc
 50
261.1501169015709
 51
0.0
  0
LINE
  5
27E
330
1F
100
AcDbEntity
  8
0
  6
Continuous
 62
     7
370
    30
100
AcDbLine
 10
9.394611696485768
 20
2.268560941842375
 30
0.0
 11
9.394611696485768
 21
2.138560996946166
 31
0.0
  0
LINE
  5
27F
330
1F
100
AcDbEntity
  8
0
  6
Continuous
 62
     7
370
    30
100
AcDbLine
 10
9.41261174188104
 20
2.268560941842375
 30
0.0
 11
9.41261174188104
 21
2.138560996946166
 31
0.0
  0
ARC
  5
280
330
1F
100
AcDbEntity
  8
0
  6
Continuous
 62
     7
370
    30
100
AcDbCircle
 10
9.36261170951807
 20
2.138560976913364
 30
0.0
 40
0.0500000000000007
100
AcDbArc
 50
261.1501169015718
 51
0.0
  0
ARC
  5
281
330
1F
100
AcDbEntity
  8
0
  6
Continuous
 62
     7
370
    30
100
AcDbCircle
 10
9.412611709518071
 20
2.459691791379992
 30
0.0
 40
0.3750000000000002
100
AcDbArc
 50
188.0229869068665
 51
261.1501169015717
  0
ARC
  5
282
330
1F
100
AcDbEntity
  8
0
  6
Continuous
 62
     7
370
    30
100
AcDbCircle
 10
9.10366551772375
 20
2.416145832029132
 30
0.0
 40
0.0630000000000007
100
AcDbArc
 50
116.7854683781338
 51
188.022986906866
  0
ARC
  5
283
330
1F
100
AcDbEntity
  8
0
  6
Continuous
 62
     7
370
    30
100
AcDbCircle
 10
8.96261170951807
 20
2.695560976913363
 30
0.0
 40
0.2500000000000001
100
AcDbArc
 50
296.7854683781349
 51
0.0
  0
LINE
  5
284
330
1F
100
AcDbEntity
  8
0
  6
Continuous
 62
     7
370
    30
100
AcDbLine
 10
9.212611722298334
 20
2.695560975768213
 30
0.0
 11
9.212611722298334
 21
2.81338156802801
 31
0.0
  0
ARC
  5
285
330
1F
100
AcDbEntity
  8
0
  6
Continuous
 62
     7
370
    30
100
AcDbCircle
 10
9.26261170951807
 20
2.813381564206005
 30
0.0
 40
0.0500000000000007
100
AcDbArc
 50
119.835560223184
 51
180.0
  0
ARC
  5
286
330
1F
100
AcDbEntity
  8
0
  6
Continuous
 62
     7
370
    30
100
AcDbCircle
 10
9.21261170951807
 20
2.900560976913364
 30
0.0
 40
0.0505000000000004
100
AcDbArc
 50
299.835560223185
 51
109.9999999999999
  0
LINE
  5
287
330
1F
100
AcDbEntity
  8
0
  6
Continuous
 62
     7
370
    30
100
AcDbLine
 10
9.195339685159713
 20
2.948015456892504
 30
0.0
 11
9.189183312945318
 21
2.96492992024518
 31
0.0
  0
ARC
  5
288
330
1F
100
AcDbEntity
  8
0
  6
Continuous
 62
     7
370
    30
100
AcDbCircle
 10
9.21261170951807
 20
2.900560976913364
 30
0.0
 40
0.0685000000000004
100
AcDbArc
 50
299.8355602231855
 51
110.0
  0
ARC
  5
289
330
1F
100
AcDbEntity
  8
0
  6
Continuous
 62
     7
370
    30
100
AcDbCircle
 10
9.26261170951807
 20
2.813381564206005
 30
0.0
 40
0.032
100
AcDbArc
 50
119.8355602231829
 51
180.0
  0
LINE
  5
28A
330
1F
100
AcDbEntity
  8
0
  6
Continuous
 62
     7
370
    30
100
AcDbLine
 10
9.394611696485768
 20
2.268560941842375
 30
0.0
 11
9.41261174188104
 21
2.268560941842375
 31
0.0
  0
ARC
  5
28B
330
1F
100
AcDbEntity
  8
0
  6
Continuous
 62
     7
370
    30
100
AcDbCircle
 10
9.62861170951806
 20
2.90056097691336
 30
0.0
 40
0.0505
100
AcDbArc
 50
69.9999999999999
 51
240.1644397768166
  0
ARC
  5
28C
330
1F
100
AcDbEntity
  8
0
  6
Continuous
 62
     7
370
    30
100
AcDbCircle
 10
9.57861170951806
 20
2.813381564206002
 30
0.0
 40
0.0499999999999996
100
AcDbArc
 50
0.0
 51
60.16443977681773
  0
LINE
  5
28D
330
1F
100
AcDbEntity
  8
0
  6
Continuous
 62
     7
370
    30
100
AcDbLine
 10
9.628611699964425
 20
2.81338156802801
 30
0.0
 11
9.628611699964425
 21
2.695560975768213
 31
0.0
  0
ARC
  5
28E
330
1F
100
AcDbEntity
  8
0
  6
Continuous
 62
     7
370
    30
100
AcDbCircle
 10
9.878611709518058
 20
2.69556097691336
 30
0.0
 40
0.2499999999999993
100
AcDbArc
 50
180.0
 51
243.2145316218671
  0
ARC
  5
28F
330
1F
100
AcDbEntity
  8
0
  6
Continuous
 62
     7
370
    30
100
AcDbCircle
 10
9.73755790131238
 20
2.41614583202913
 30
0.0
 40
0.0630000000000014
100
AcDbArc
 50
351.977013093135
 51
63.21453162186601
  0
ARC
  5
290
330
1F
100
AcDbEntity
  8
0
  6
Continuous
 62
     7
370
    30
100
AcDbCircle
 10
9.42861170951806
 20
2.459691791379989
 30
0.0
 40
0.3750000000000001
100
AcDbArc
 50
278.8498830984297
 51
351.977013093135
  0
ARC
  5
291
330
1F
100
AcDbEntity
  8
0
  6
Continuous
 62
     7
370
    30
100
AcDbCircle
 10
9.47861170951806
 20
2.13856097691336
 30
0.0
 40
0.0499999999999994
100
AcDbArc
 50
180.0
 51
278.8498830984299
  0
LINE
  5
292
330
1F
100
AcDbEntity
  8
0
  6
Continuous
 62
     7
370
    30
100
AcDbLine
 10
9.428611717047962
 20
2.138560996946166
 30
0.0
 11
9.428611717047962
 21
2.268560941842375
 31
0.0
  0
LINE
  5
293
330
1F
100
AcDbEntity
  8
0
  6
Continuous
 62
     7
370
    30
100
AcDbLine
 10
9.428611717047962
 20
2.268560941842375
 30
0.0
 11
9.446611689110748
 21
2.268560941842375
 31
0.0
  0
LINE
  5
294
330
1F
100
AcDbEntity
  8
0
  6
Continuous
 62
     7
370
    30
100
AcDbLine
 10
9.446611689110748
 20
2.138560996946166
 30
0.0
 11
9.446611689110748
 21
2.268560941842375
 31
0.0
  0
ARC
  5
295
330
1F
100
AcDbEntity
  8
0
  6
Continuous
 62
     7
370
    30
100
AcDbCircle
 10
9.47861170951806
 20
2.13856097691336
 30
0.0
 40
0.032
100
AcDbArc
 50
180.0
 51
278.849883098431
  0
ARC
  5
296
330
1F
100
AcDbEntity
  8
0
  6
Continuous
 62
     7
370
    30
100
AcDbCircle
 10
9.42861170951806
 20
2.459691791379989
 30
0.0
 40
0.3569999999999998
100
AcDbArc
 50
278.8498830984298
 51
351.977013093135
  0
ARC
  5
297
330
1F
100
AcDbEntity
  8
0
  6
Continuous
 62
     7
370
    30
100
AcDbCircle
 10
9.73755790131238
 20
2.41614583202913
 30
0.0
 40
0.0450000000000002
100
AcDbArc
 50
351.9770130931352
 51
63.21453162186619
  0
ARC
  5
298
330
1F
100
AcDbEntity
  8
0
  6
Continuous
 62
     7
370
    30
100
AcDbCircle
 10
9.878611709518058
 20
2.69556097691336
 30
0.0
 40
0.2679999999999996
100
AcDbArc
 50
180.0
 51
243.214531621867
  0
LINE
  5
299
330
1F
100
AcDbEntity
  8
0
  6
Continuous
 62
     7
370
    30
100
AcDbLine
 10
9.61061172790164
 20
2.81338156802801
 30
0.0
 11
9.61061172790164
 21
2.695560975768213
 31
0.0
  0
ARC
  5
29A
330
1F
100
AcDbEntity
  8
0
  6
Continuous
 62
     7
370
    30
100
AcDbCircle
 10
9.57861170951806
 20
2.813381564206002
 30
0.0
 40
0.0319999999999987
100
AcDbArc
 50
0.0
 51
60.16443977681946
  0
ARC
  5
29B
330
1F
100
AcDbEntity
  8
0
  6
Continuous
 62
     7
370
    30
100
AcDbCircle
 10
9.62861170951806
 20
2.90056097691336
 30
0.0
 40
0.0685000000000008
100
AcDbArc
 50
69.99999999999999
 51
240.1644397768163
  0
LINE
  5
29C
330
1F
100
AcDbEntity
  8
0
  6
Continuous
 62
     7
370
    30
100
AcDbLine
 10
9.652040109317442
 20
2.96492992024518
 30
0.0
 11
9.645883700436803
 21
2.948015456892504
 31
0.0
  0
LINE
  5
29D
330
1F
100
AcDbEntity
  8
0
  6
Continuous
 62
     7
370
    30
100
AcDbLine
 10
9.514541917708284
 20
2.809608886610348
 30
0.0
 11
9.49418071292266
 21
2.797853359077872
 31
0.0
  0
LINE
  5
29E
330
1F
100
AcDbEntity
  8
0
  6
Continuous
 62
     7
370
    30
100
AcDbLine
 10
9.514541917708284
 20
2.815465383955591
 30
0.0
 11
9.514541917708284
 21
2.809608886610348
 31
0.0
  0
LINE
  5
29F
330
1F
100
AcDbEntity
  8
0
  6
Continuous
 62
     7
370
    30
100
AcDbLine
 10
9.494181519580009
 20
2.827220434826907
 30
0.0
 11
9.514541917708284
 21
2.815465383955591
 31
0.0
  0
LINE
  5
2A0
330
1F
100
AcDbEntity
  8
0
  6
Continuous
 62
     7
370
    30
100
AcDbLine
 10
9.494181519580009
 20
2.833077262168338
 30
0.0
 11
9.494181519580009
 21
2.827220434826907
 31
0.0
  0
LINE
  5
2A1
330
1F
100
AcDbEntity
  8
0
  6
Continuous
 62
     7
370
    30
100
AcDbLine
 10
9.514541917708284
 20
2.844832313039654
 30
0.0
 11
9.494181519580009
 21
2.833077262168338
 31
0.0
  0
LINE
  5
2A2
330
1F
100
AcDbEntity
  8
0
  6
Continuous
 62
     7
370
    30
100
AcDbLine
 10
9.514541917708284
 20
2.850688792051775
 30
0.0
 11
9.514541917708284
 21
2.844832313039654
 31
0.0
  0
LINE
  5
2A3
330
1F
100
AcDbEntity
  8
0
  6
Continuous
 62
     7
370
    30
100
AcDbLine
 10
9.494181519580009
 20
2.862443861256212
 30
0.0
 11
9.514541917708284
 21
2.850688792051775
 31
0.0
  0
LINE
  5
2A4
330
1F
100
AcDbEntity
  8
0
  6
Continuous
 62
     7
370
    30
100
AcDbLine
 10
9.494181519580009
 20
2.868300670264521
 30
0.0
 11
9.494181519580009
 21
2.862443861256212
 31
0.0
  0
LINE
  5
2A5
330
1F
100
AcDbEntity
  8
0
  6
Continuous
 62
     7
370
    30
100
AcDbLine
 10
9.514541917708284
 20
2.880055739468959
 30
0.0
 11
9.494181519580009
 21
2.868300670264521
 31
0.0
  0
LINE
  5
2A6
330
1F
100
AcDbEntity
  8
0
  6
Continuous
 62
     7
370
    30
100
AcDbLine
 10
9.514541917708284
 20
2.885912227647641
 30
0.0
 11
9.514541917708284
 21
2.880055739468959
 31
0.0
  0
LINE
  5
2A7
330
1F
100
AcDbEntity
  8
0
  6
Continuous
 62
     7
370
    30
100
AcDbLine
 10
9.494181519580009
 20
2.897667287685518
 30
0.0
 11
9.514541917708284
 21
2.885912227647641
 31
0.0
  0
LINE
  5
2A8
330
1F
100
AcDbEntity
  8
0
  6
Continuous
 62
     7
370
    30
100
AcDbLine
 10
9.494181519580009
 20
2.903524096693827
 30
0.0
 11
9.494181519580009
 21
2.897667287685518
 31
0.0
  0
LINE
  5
2A9
330
1F
100
AcDbEntity
  8
0
  6
Continuous
 62
     7
370
    30
100
AcDbLine
 10
9.514541917708284
 20
2.915279156731704
 30
0.0
 11
9.494181519580009
 21
2.903524096693827
 31
0.0
  0
LINE
  5
2AA
330
1F
100
AcDbEntity
  8
0
  6
Continuous
 62
     7
370
    30
100
AcDbLine
 10
9.514541917708284
 20
2.921135644910386
 30
0.0
 11
9.514541917708284
 21
2.915279156731704
 31
0.0
  0
LINE
  5
2AB
330
1F
100
AcDbEntity
  8
0
  6
Continuous
 62
     7
370
    30
100
AcDbLine
 10
9.494181519580009
 20
2.932890704948262
 30
0.0
 11
9.514541917708284
 21
2.921135644910386
 31
0.0
  0
LINE
  5
2AC
330
1F
100
AcDbEntity
  8
0
  6
Continuous
 62
     7
370
    30
100
AcDbLine
 10
9.494181519580009
 20
2.938747523123133
 30
0.0
 11
9.494181519580009
 21
2.932890704948262
 31
0.0
  0
LINE
  5
2AD
330
1F
100
AcDbEntity
  8
0
  6
Continuous
 62
     7
370
    30
100
AcDbLine
 10
9.514541917708284
 20
2.950502583161009
 30
0.0
 11
9.494181519580009
 21
2.938747523123133
 31
0.0
  0
LINE
  5
2AE
330
1F
100
AcDbEntity
  8
0
  6
Continuous
 62
     7
370
    30
100
AcDbLine
 10
9.514541917708284
 20
2.956359071339691
 30
0.0
 11
9.514541917708284
 21
2.950502583161009
 31
0.0
  0
LINE
  5
2AF
330
1F
100
AcDbEntity
  8
0
  6
Continuous
 62
     7
370
    30
100
AcDbLine
 10
9.494181519580009
 20
2.968114131377568
 30
0.0
 11
9.514541917708284
 21
2.956359071339691
 31
0.0
  0
LINE
  5
2B0
330
1F
100
AcDbEntity
  8
0
  6
Continuous
 62
     7
370
    30
100
AcDbLine
 10
9.494181519580009
 20
2.973970949552438
 30
0.0
 11
9.494181519580009
 21
2.968114131377568
 31
0.0
  0
LINE
  5
2B1
330
1F
100
AcDbEntity
  8
0
  6
Continuous
 62
     7
370
    30
100
AcDbLine
 10
9.514541917708284
 20
2.985726009590314
 30
0.0
 11
9.494181519580009
 21
2.973970949552438
 31
0.0
  0
LINE
  5
2B2
330
1F
100
AcDbEntity
  8
0
  6
Continuous
 62
     7
370
    30
100
AcDbLine
 10
9.514541917708284
 20
2.991582493185716
 30
0.0
 11
9.514541917708284
 21
2.985726009590314
 31
0.0
  0
LINE
  5
2B3
330
1F
100
AcDbEntity
  8
0
  6
Continuous
 62
     7
370
    30
100
AcDbLine
 10
9.494181519580009
 20
3.003337553223593
 30
0.0
 11
9.514541917708284
 21
2.991582493185716
 31
0.0
  0
LINE
  5
2B4
330
1F
100
AcDbEntity
  8
0
  6
Continuous
 62
     7
370
    30
100
AcDbLine
 10
9.494181519580009
 20
3.009194371398463
 30
0.0
 11
9.494181519580009
 21
3.003337553223593
 31
0.0
  0
LINE
  5
2B5
330
1F
100
AcDbEntity
  8
0
  6
Continuous
 62
     7
370
    30
100
AcDbLine
 10
9.514541917708284
 20
3.02094943086343
 30
0.0
 11
9.494181519580009
 21
3.009194371398463
 31
0.0
  0
LINE
  5
2B6
330
1F
100
AcDbEntity
  8
0
  6
Continuous
 62
     7
370
    30
100
AcDbLine
 10
9.514541917708284
 20
3.026805917323382
 30
0.0
 11
9.514541917708284
 21
3.02094943086343
 31
0.0
  0
LINE
  5
2B7
330
1F
100
AcDbEntity
  8
0
  6
Continuous
 62
     7
370
    30
100
AcDbLine
 10
9.494181519580009
 20
3.038560977361259
 30
0.0
 11
9.514541917708284
 21
3.026805917323382
 31
0.0
  0
LINE
  5
2B8
330
1F
100
AcDbEntity
  8
0
  6
Continuous
 62
     7
370
    30
100
AcDbLine
 10
9.608611731005775
 20
3.038560977361259
 30
0.0
 11
9.494181519580009
 21
3.038560977361259
 31
0.0
  0
ARC
  5
2B9
330
1F
100
AcDbEntity
  8
0
  6
Continuous
 62
     7
370
    30
100
AcDbCircle
 10
9.608611709518065
 20
2.97656097691337
 30
0.0
 40
0.0620000000000012
100
AcDbArc
 50
0.0
 51
90.0
  0
LINE
  5
2BA
330
1F
100
AcDbEntity
  8
0
  6
Continuous
 62
     7
370
    30
100
AcDbLine
 10
9.670611708110082
 20
2.974971997571579
 30
0.0
 11
9.670611708110082
 21
2.976560975048909
 31
0.0
  0
ARC
  5
2BB
330
1F
100
AcDbEntity
  8
0
  6
Continuous
 62
     7
370
    30
100
AcDbCircle
 10
9.660611709518076
 20
2.974971997602497
 30
0.0
 40
0.0099999999999909
100
AcDbArc
 50
246.7301760414994
 51
359.9999999999627
  0
ARC
  5
2BC
330
1F
100
AcDbEntity
  8
0
  6
Continuous
 62
     7
370
    30
100
AcDbCircle
 10
9.62861170951806
 20
2.90056097691336
 30
0.0
 40
0.0710000000000108
100
AcDbArc
 50
66.73017604154505
 51
232.4184423812513
  0
ARC
  5
2BD
330
1F
100
AcDbEntity
  8
0
  6
Continuous
 62
     7
370
    30
100
AcDbCircle
 10
9.573111709518066
 20
2.828444751277222
 30
0.0
 40
0.0199999999999982
100
AcDbArc
 50
359.9999999999983
 51
52.41844238125047
  0
LINE
  5
2BE
330
1F
100
AcDbEntity
  8
0
  6
Continuous
 62
     7
370
    30
100
AcDbLine
 10
9.593111736729696
 20
2.663560988768126
 30
0.0
 11
9.593111736729696
 21
2.828444757350095
 31
0.0
  0
LINE
  5
2BF
330
1F
100
AcDbEntity
  8
0
  6
Continuous
 62
     7
370
    30
100
AcDbLine
 10
9.248111722199305
 20
2.663560988768126
 30
0.0
 11
9.593111736729696
 21
2.663560988768126
 31
0.0
  0
LINE
  5
2C0
330
1F
100
AcDbEntity
  8
0
  6
Continuous
 62
     7
370
    30
100
AcDbLine
 10
9.248111722199305
 20
2.828444757350095
 30
0.0
 11
9.248111722199305
 21
2.663560988768126
 31
0.0
  0
ARC
  5
2C1
330
1F
100
AcDbEntity
  8
0
  6
Continuous
 62
     7
370
    30
100
AcDbCircle
 10
9.268111709518067
 20
2.82844475127723
 30
0.0
 40
0.0200000000000014
100
AcDbArc
 50
127.5815576187576
 51
180.0000000000021
  0
ARC
  5
2C2
330
1F
100
AcDbEntity
  8
0
  6
Continuous
 62
     7
370
    30
100
AcDbCircle
 10
9.212611709518068
 20
2.900560976913364
 30
0.0
 40
0.0710000000000083
100
AcDbArc
 50
307.5815576187536
 51
113.2698239584546
  0
ARC
  5
2C3
330
1F
100
AcDbEntity
  8
0
  6
Continuous
 62
     7
370
    30
100
AcDbCircle
 10
9.180611709518054
 20
2.974971997602497
 30
0.0
 40
0.0099999999999901
100
AcDbArc
 50
180.000000000039
 51
293.2698239585022
  0
LINE
  5
2C4
330
1F
100
AcDbEntity
  8
0
  6
Continuous
 62
     7
370
    30
100
AcDbLine
 10
9.170611714152678
 20
2.976560975048909
 30
0.0
 11
9.170611714152678
 21
2.974971997571579
 31
0.0
  0
ARC
  5
2C5
330
1F
100
AcDbEntity
  8
0
  6
Continuous
 62
     7
370
    30
100
AcDbCircle
 10
9.232611709518064
 20
2.97656097691337
 30
0.0
 40
0.0619999999999994
100
AcDbArc
 50
90.0
 51
180.0000000000016
  0
LINE
  5
2C6
330
1F
100
AcDbEntity
  8
0
  6
Continuous
 62
     7
370
    30
100
AcDbLine
 10
9.329730962660207
 20
3.038560977361259
 30
0.0
 11
9.232611691256984
 21
3.038560977361259
 31
0.0
  0
LINE
  5
2C7
330
1F
100
AcDbEntity
  8
0
  6
Continuous
 62
     7
370
    30
100
AcDbLine
 10
9.347010993039822
 20
3.028584348132964
 30
0.0
 11
9.329730962660207
 21
3.038560977361259
 31
0.0
  0
LINE
  5
2C8
330
1F
100
AcDbEntity
  8
0
  6
Continuous
 62
     7
370
    30
100
AcDbLine
 10
9.347010993039822
 20
3.022727530244549
 30
0.0
 11
9.347010993039822
 21
3.028584348132964
 31
0.0
  0
LINE
  5
2C9
330
1F
100
AcDbEntity
  8
0
  6
Continuous
 62
     7
370
    30
100
AcDbLine
 10
9.326650631577788
 20
3.010972471066037
 30
0.0
 11
9.347010993039822
 21
3.022727530244549
 31
0.0
  0
LINE
  5
2CA
330
1F
100
AcDbEntity
  8
0
  6
Continuous
 62
     7
370
    30
100
AcDbLine
 10
9.326650631577788
 20
3.005115985178995
 30
0.0
 11
9.326650631577788
 21
3.010972471066037
 31
0.0
  0
LINE
  5
2CB
330
1F
100
AcDbEntity
  8
0
  6
Continuous
 62
     7
370
    30
100
AcDbLine
 10
9.347010993039822
 20
2.993360925141119
 30
0.0
 11
9.326650631577788
 21
3.005115985178995
 31
0.0
  0
LINE
  5
2CC
330
1F
100
AcDbEntity
  8
0
  6
Continuous
 62
     7
370
    30
100
AcDbLine
 10
9.347010993039822
 20
2.987504106966249
 30
0.0
 11
9.347010993039822
 21
2.993360925141119
 31
0.0
  0
LINE
  5
2CD
330
1F
100
AcDbEntity
  8
0
  6
Continuous
 62
     7
370
    30
100
AcDbLine
 10
9.326650631577788
 20
2.975749046928372
 30
0.0
 11
9.347010993039822
 21
2.987504106966249
 31
0.0
  0
LINE
  5
2CE
330
1F
100
AcDbEntity
  8
0
  6
Continuous
 62
     7
370
    30
100
AcDbLine
 10
9.326650631577788
 20
2.96989255874969
 30
0.0
 11
9.326650631577788
 21
2.975749046928372
 31
0.0
  0
LINE
  5
2CF
330
1F
100
AcDbEntity
  8
0
  6
Continuous
 62
     7
370
    30
100
AcDbLine
 10
9.347010993039822
 20
2.958137503295093
 30
0.0
 11
9.326650631577788
 21
2.96989255874969
 31
0.0
  0
LINE
  5
2D0
330
1F
100
AcDbEntity
  8
0
  6
Continuous
 62
     7
370
    30
100
AcDbLine
 10
9.347010993039822
 20
2.952280685120224
 30
0.0
 11
9.347010993039822
 21
2.958137503295093
 31
0.0
  0
LINE
  5
2D1
330
1F
100
AcDbEntity
  8
0
  6
Continuous
 62
     7
370
    30
100
AcDbLine
 10
9.326650631577788
 20
2.940525625082347
 30
0.0
 11
9.347010993039822
 21
2.952280685120224
 31
0.0
  0
LINE
  5
2D2
330
1F
100
AcDbEntity
  8
0
  6
Continuous
 62
     7
370
    30
100
AcDbLine
 10
9.326650631577788
 20
2.934669136903665
 30
0.0
 11
9.326650631577788
 21
2.940525625082347
 31
0.0
  0
LINE
  5
2D3
330
1F
100
AcDbEntity
  8
0
  6
Continuous
 62
     7
370
    30
100
AcDbLine
 10
9.347010993039822
 20
2.922914076865788
 30
0.0
 11
9.326650631577788
 21
2.934669136903665
 31
0.0
  0
LINE
  5
2D4
330
1F
100
AcDbEntity
  8
0
  6
Continuous
 62
     7
370
    30
100
AcDbLine
 10
9.347010993039822
 20
2.917057258690918
 30
0.0
 11
9.347010993039822
 21
2.922914076865788
 31
0.0
  0
LINE
  5
2D5
330
1F
100
AcDbEntity
  8
0
  6
Continuous
 62
     7
370
    30
100
AcDbLine
 10
9.326650631577788
 20
2.905302198653041
 30
0.0
 11
9.347010993039822
 21
2.917057258690918
 31
0.0
  0
LINE
  5
2D6
330
1F
100
AcDbEntity
  8
0
  6
Continuous
 62
     7
370
    30
100
AcDbLine
 10
9.326650631577788
 20
2.899445710474359
 30
0.0
 11
9.326650631577788
 21
2.905302198653041
 31
0.0
  0
LINE
  5
2D7
330
1F
100
AcDbEntity
  8
0
  6
Continuous
 62
     7
370
    30
100
AcDbLine
 10
9.347010993039822
 20
2.887690650436483
 30
0.0
 11
9.326650631577788
 21
2.899445710474359
 31
0.0
  0
LINE
  5
2D8
330
1F
100
AcDbEntity
  8
0
  6
Continuous
 62
     7
370
    30
100
AcDbLine
 10
9.347010993039822
 20
2.881833832261612
 30
0.0
 11
9.347010993039822
 21
2.887690650436483
 31
0.0
  0
LINE
  5
2D9
330
1F
100
AcDbEntity
  8
0
  6
Continuous
 62
     7
370
    30
100
AcDbLine
 10
9.326650631577788
 20
2.870078781390297
 30
0.0
 11
9.347010993039822
 21
2.881833832261612
 31
0.0
  0
LINE
  5
2DA
330
1F
100
AcDbEntity
  8
0
  6
Continuous
 62
     7
370
    30
100
AcDbLine
 10
9.326650631577788
 20
2.864222284045054
 30
0.0
 11
9.326650631577788
 21
2.870078781390297
 31
0.0
  0
LINE
  5
2DB
330
1F
100
AcDbEntity
  8
0
  6
Continuous
 62
     7
370
    30
100
AcDbLine
 10
9.347010993039822
 20
2.852467233173738
 30
0.0
 11
9.326650631577788
 21
2.864222284045054
 31
0.0
  0
LINE
  5
2DC
330
1F
100
AcDbEntity
  8
0
  6
Continuous
 62
     7
370
    30
100
AcDbLine
 10
9.347010993039822
 20
2.846610405832307
 30
0.0
 11
9.347010993039822
 21
2.852467233173738
 31
0.0
  0
LINE
  5
2DD
330
1F
100
AcDbEntity
  8
0
  6
Continuous
 62
     7
370
    30
100
AcDbLine
 10
9.326650631577788
 20
2.834855354960991
 30
0.0
 11
9.347010993039822
 21
2.846610405832307
 31
0.0
  0
LINE
  5
2DE
330
1F
100
AcDbEntity
  8
0
  6
Continuous
 62
     7
370
    30
100
AcDbLine
 10
9.326650631577788
 20
2.82899887594887
 30
0.0
 11
9.326650631577788
 21
2.834855354960991
 31
0.0
  0
LINE
  5
2DF
330
1F
100
AcDbEntity
  8
0
  6
Continuous
 62
     7
370
    30
100
AcDbLine
 10
9.347010993039822
 20
2.817243806744433
 30
0.0
 11
9.326650631577788
 21
2.82899887594887
 31
0.0
  0
LINE
  5
2E0
330
1F
100
AcDbEntity
  8
0
  6
Continuous
 62
     7
370
    30
100
AcDbLine
 10
9.347010993039822
 20
2.811386997736123
 30
0.0
 11
9.347010993039822
 21
2.817243806744433
 31
0.0
  0
LINE
  5
2E1
330
1F
100
AcDbEntity
  8
0
  6
Continuous
 62
     7
370
    30
100
AcDbLine
 10
9.326650631577788
 20
2.799631928531686
 30
0.0
 11
9.347010993039822
 21
2.811386997736123
 31
0.0
  0
LINE
  5
2E2
330
1F
100
AcDbEntity
  8
0
  6
Continuous
 62
     7
370
    30
100
AcDbLine
 10
9.326650631577788
 20
2.793775449519564
 30
0.0
 11
9.326650631577788
 21
2.799631928531686
 31
0.0
  0
LINE
  5
2E3
330
1F
100
AcDbEntity
  8
0
  6
Continuous
 62
     7
370
    30
100
AcDbLine
 10
9.331251878423792
 20
2.791118906874838
 30
0.0
 11
9.326650631577788
 21
2.793775449519564
 31
0.0
  0
ARC
  5
2E4
330
1F
100
AcDbEntity
  8
0
  6
Continuous
 62
     7
370
    30
100
AcDbCircle
 10
9.321578774581047
 20
2.788582999107385
 30
0.0
 40
0.0100000000000095
100
AcDbArc
 50
336.1596651701942
 51
14.69012509412925
  0
ARC
  5
2E5
330
1F
100
AcDbEntity
  8
0
  6
Continuous
 62
     7
370
    30
100
AcDbCircle
 10
9.338611709518066
 20
2.754560976913369
 30
0.0
 40
0.0310000000000001
100
AcDbArc
 50
104.7376174516021
 51
270.0000000000008
  0
LINE
  5
2E6
330
1F
100
AcDbEntity
  8
0
  6
Continuous
 62
     7
370
    30
100
AcDbLine
 10
9.50261167552746
 20
2.723560968976569
 30
0.0
 11
9.338611710069056
 21
2.723560968976569
 31
0.0
  0
ARC
  5
2E7
330
1F
100
AcDbEntity
  8
0
  6
Continuous
 62
     7
370
    30
100
AcDbCircle
 10
9.502611709518066
 20
2.754560976913369
 30
0.0
 40
0.0310000000000001
100
AcDbArc
 50
270.0000000000008
 51
84.55047730486629
  0
LINE
  5
2E8
330
1F
100
AcDbEntity
  8
0
  6
Continuous
 62
     7
370
    30
100
AcDbLine
 10
9.49418071292266
 20
2.791988245165502
 30
0.0
 11
9.505555754850539
 21
2.785420862699131
 31
0.0
  0
LINE
  5
2E9
330
1F
100
AcDbEntity
  8
0
  6
Continuous
 62
     7
370
    30
100
AcDbLine
 10
9.49418071292266
 20
2.797853359077872
 30
0.0
 11
9.49418071292266
 21
2.791988245165502
 31
0.0
  0
LINE
  5
2EA
330
1F
100
AcDbEntity
  8
0
  6
Continuous
 62
     7
370
    30
100
AcDbLine
 10
8.420611704883452
 20
1.888560944968099
 30
0.0
 11
8.420611704883452
 21
1.838560949238983
 31
0.0
  0
LINE
  5
2EB
330
1F
100
AcDbEntity
  8
0
  6
Continuous
 62
     7
370
    30
100
AcDbLine
 10
8.67102012714399
 20
1.888560944968099
 30
0.0
 11
8.420611704883452
 21
1.888560944968099
 31
0.0
  0
ARC
  5
2EC
330
1F
100
AcDbEntity
  8
0
  6
Continuous
 62
     7
370
    30
100
AcDbCircle
 10
8.671020126736563
 20
1.913560976913373
 30
0.0
 40
0.0249999999999999
100
AcDbArc
 50
270.0000000000008
 51
21.86614512999815
  0
ARC
  5
2ED
330
1F
100
AcDbEntity
  8
0
  6
Continuous
 62
     7
370
    30
100
AcDbCircle
 10
8.795611709518065
 20
1.963560976913373
 30
0.0
 40
0.1092499999999998
100
AcDbArc
 50
193.0667292143387
 51
201.866145129999
  0
ARC
  5
2EE
330
1F
100
AcDbEntity
  8
0
  6
Continuous
 62
     7
370
    30
100
AcDbCircle
 10
8.713543159718323
 20
1.944513257003439
 30
0.0
 40
0.0250000000000003
100
AcDbArc
 50
13.06672921433905
 51
193.0667292143384
  0
ARC
  5
2EF
330
1F
100
AcDbEntity
  8
0
  6
Continuous
 62
     7
370
    30
100
AcDbCircle
 10
8.795611709518065
 20
1.963560976913373
 30
0.0
 40
0.0592500000000009
100
AcDbArc
 50
193.0667292143384
 51
90.0
  0
LINE
  5
2F0
330
1F
100
AcDbEntity
  8
0
  6
Continuous
 62
     7
370
    30
100
AcDbLine
 10
8.770611709361866
 20
2.022810947433948
 30
0.0
 11
8.795611709518065
 21
2.022810947433948
 31
0.0
  0
LINE
  5
2F1
330
1F
100
AcDbEntity
  8
0
  6
Continuous
 62
     7
370
    30
100
AcDbLine
 10
8.770611709361866
 20
2.911073144486583
 30
0.0
 11
8.770611709361866
 21
2.022810947433948
 31
0.0
  0
ARC
  5
2F2
330
1F
100
AcDbEntity
  8
0
  6
Continuous
 62
     7
370
    30
100
AcDbCircle
 10
8.695611709518065
 20
2.911073142336175
 30
0.0
 40
0.0749999999999997
100
AcDbArc
 50
0.0
 51
83.30023482223909
  0
ARC
  5
2F3
330
1F
100
AcDbEntity
  8
0
  6
Continuous
 62
     7
370
    30
100
AcDbCircle
 10
8.709611709518065
 20
3.030253677659692
 30
0.0
 40
0.0449999999999999
100
AcDbArc
 50
180.0
 51
263.3002348222426
  0
LINE
  5
2F4
330
1F
100
AcDbEntity
  8
0
  6
Continuous
 62
     7
370
    30
100
AcDbLine
 10
8.664611711174558
 20
3.105560981079831
 30
0.0
 11
8.664611711174558
 21
3.030253677676852
 31
0.0
  0
ARC
  5
2F5
330
1F
100
AcDbEntity
  8
0
  6
Continuous
 62
     7
370
    30
100
AcDbCircle
 10
8.674611709518064
 20
3.105560976913373
 30
0.0
 40
0.0100000000000002
100
AcDbArc
 50
90.0
 51
180.0
  0
LINE
  5
2F6
330
1F
100
AcDbEntity
  8
0
  6
Continuous
 62
     7
370
    30
100
AcDbLine
 10
8.681047721304367
 20
3.115560974725718
 30
0.0
 11
8.674611713987005
 21
3.115560974725718
 31
0.0
  0
LINE
  5
2F7
330
1F
100
AcDbEntity
  8
0
  6
Continuous
 62
     7
370
    30
100
AcDbLine
 10
8.714611706903673
 20
3.075560977225769
 30
0.0
 11
8.681047721304367
 21
3.115560974725718
 31
0.0
  0
LINE
  5
2F8
330
1F
100
AcDbEntity
  8
0
  6
Continuous
 62
     7
370
    30
100
AcDbLine
 10
8.705795363750822
 20
3.025560976913373
 30
0.0
 11
8.714611706903673
 21
3.075560977225769
 31
0.0
  0
LINE
  5
2F9
330
1F
100
AcDbEntity
  8
0
  6
Continuous
 62
     7
370
    30
100
AcDbLine
 10
8.770611709361866
 20
3.025560976913373
 30
0.0
 11
8.705795363750822
 21
3.025560976913373
 31
0.0
  0
LINE
  5
2FA
330
1F
100
AcDbEntity
  8
0
  6
Continuous
 62
     7
370
    30
100
AcDbLine
 10
8.770611709361866
 20
3.650560996859809
 30
0.0
 11
8.770611709361866
 21
3.025560976913373
 31
0.0
  0
LINE
  5
2FB
330
1F
100
AcDbEntity
  8
0
  6
Continuous
 62
     7
370
    30
100
AcDbLine
 10
8.820611709674264
 20
3.650560996859809
 30
0.0
 11
8.770611709361866
 21
3.650560996859809
 31
0.0
  0
LINE
  5
2FC
330
1F
100
AcDbEntity
  8
0
  6
Continuous
 62
     7
370
    30
100
AcDbLine
 10
8.820611709674264
 20
3.025560976913373
 30
0.0
 11
8.820611709674264
 21
3.650560996859809
 31
0.0
  0
LINE
  5
2FD
330
1F
100
AcDbEntity
  8
0
  6
Continuous
 62
     7
370
    30
100
AcDbLine
 10
8.885428055285308
 20
3.025560976913373
 30
0.0
 11
8.820611709674264
 21
3.025560976913373
 31
0.0
  0
LINE
  5
2FE
330
1F
100
AcDbEntity
  8
0
  6
Continuous
 62
     7
370
    30
100
AcDbLine
 10
8.876611712132457
 20
3.075560977225769
 30
0.0
 11
8.885428055285308
 21
3.025560976913373
 31
0.0
  0
LINE
  5
2FF
330
1F
100
AcDbEntity
  8
0
  6
Continuous
 62
     7
370
    30
100
AcDbLine
 10
8.910175697731763
 20
3.115560974725718
 30
0.0
 11
8.876611712132457
 21
3.075560977225769
 31
0.0
  0
LINE
  5
300
330
1F
100
AcDbEntity
  8
0
  6
Continuous
 62
     7
370
    30
100
AcDbLine
 10
8.916611705049124
 20
3.115560974725718
 30
0.0
 11
8.910175697731763
 21
3.115560974725718
 31
0.0
  0
ARC
  5
301
330
1F
100
AcDbEntity
  8
0
  6
Continuous
 62
     7
370
    30
100
AcDbCircle
 10
8.916611709518065
 20
3.105560976913373
 30
0.0
 40
0.0100000000000002
100
AcDbArc
 50
0.0
 51
90.0
  0
LINE
  5
302
330
1F
100
AcDbEntity
  8
0
  6
Continuous
 62
     7
370
    30
100
AcDbLine
 10
8.926611707861571
 20
3.030253677676852
 30
0.0
 11
8.926611707861571
 21
3.105560981079831
 31
0.0
  0
ARC
  5
303
330
1F
100
AcDbEntity
  8
0
  6
Continuous
 62
     7
370
    30
100
AcDbCircle
 10
8.881611709518065
 20
3.030253677659692
 30
0.0
 40
0.045
100
AcDbArc
 50
276.6997651777613
 51
0.0
  0
ARC
  5
304
330
1F
100
AcDbEntity
  8
0
  6
Continuous
 62
     7
370
    30
100
AcDbCircle
 10
8.895611709518066
 20
2.911073142336175
 30
0.0
 40
0.0750000000000011
100
AcDbArc
 50
96.69976517776092
 51
180.0
  0
LINE
  5
305
330
1F
100
AcDbEntity
  8
0
  6
Continuous
 62
     7
370
    30
100
AcDbLine
 10
8.820611709674264
 20
2.069912109983965
 30
0.0
 11
8.820611709674264
 21
2.911073144486583
 31
0.0
  0
ARC
  5
306
330
1F
100
AcDbEntity
  8
0
  6
Continuous
 62
     7
370
    30
100
AcDbCircle
 10
8.795611709518065
 20
1.963560976913373
 30
0.0
 40
0.1092500000000001
100
AcDbArc
 50
338.1338548700026
 51
76.77162750785774
  0
ARC
  5
307
330
1F
100
AcDbEntity
  8
0
  6
Continuous
 62
     7
370
    30
100
AcDbCircle
 10
8.920203292299568
 20
1.913560976913373
 30
0.0
 40
0.0250000000000013
100
AcDbArc
 50
158.1338548700034
 51
269.9999999999968
  0
LINE
  5
308
330
1F
100
AcDbEntity
  8
0
  6
Continuous
 62
     7
370
    30
100
AcDbLine
 10
9.170611714152678
 20
1.888560944968099
 30
0.0
 11
8.92020329189214
 21
1.888560944968099
 31
0.0
  0
LINE
  5
309
330
1F
100
AcDbEntity
  8
0
  6
Continuous
 62
     7
370
    30
100
AcDbLine
 10
9.170611714152678
 20
1.838560949238983
 30
0.0
 11
9.170611714152678
 21
1.888560944968099
 31
0.0
  0
LINE
  5
30A
330
1F
100
AcDbEntity
  8
0
  6
Continuous
 62
     7
370
    30
100
AcDbLine
 10
8.420611704883452
 20
1.838560949238983
 30
0.0
 11
9.170611714152678
 21
1.838560949238983
 31
0.0
  0
LINE
  5
30B
330
1F
100
AcDbEntity
  8
0
  6
Continuous
 62
     7
370
    30
100
AcDbLine
 10
7.570611740822237
 20
2.234179152357075
 30
0.0
 11
7.570611740822237
 21
2.911073144486583
 31
0.0
  0
ARC
  5
30C
330
1F
100
AcDbEntity
  8
0
  6
Continuous
 62
     7
370
    30
100
AcDbCircle
 10
7.497611709518064
 20
2.150560976913373
 30
0.0
 40
0.1109999999999996
100
AcDbArc
 50
311.1214761681859
 51
48.87852383181492
  0
LINE
  5
30D
330
1F
100
AcDbEntity
  8
0
  6
Continuous
 62
     7
370
    30
100
AcDbLine
 10
7.570611740822237
 20
1.888560944968099
 30
0.0
 11
7.570611740822237
 21
2.066942804285639
 31
0.0
  0
LINE
  5
30E
330
1F
100
AcDbEntity
  8
0
  6
Continuous
 62
     7
370
    30
100
AcDbLine
 10
7.920611710926049
 20
1.888560944968099
 30
0.0
 11
7.570611740822237
 21
1.888560944968099
 31
0.0
  0
LINE
  5
30F
330
1F
100
AcDbEntity
  8
0
  6
Continuous
 62
     7
370
    30
100
AcDbLine
 10
7.045611712334032
 20
1.838560949238983
 30
0.0
 11
7.920611710926049
 21
1.838560949238983
 31
0.0
  0
LINE
  5
310
330
1F
100
AcDbEntity
  8
0
  6
Continuous
 62
     7
370
    30
100
AcDbLine
 10
7.045611712334032
 20
1.93156098822793
 30
0.0
 11
7.045611712334032
 21
1.838560949238983
 31
0.0
  0
LINE
  5
311
330
1F
100
AcDbEntity
  8
0
  6
Continuous
 62
     7
370
    30
100
AcDbLine
 10
7.095611708063148
 20
1.93156098822793
 30
0.0
 11
7.045611712334032
 21
1.93156098822793
 31
0.0
  0
LINE
  5
312
330
1F
100
AcDbEntity
  8
0
  6
Continuous
 62
     7
370
    30
100
AcDbLine
 10
7.095611708063148
 20
1.888560944968099
 30
0.0
 11
7.095611708063148
 21
1.93156098822793
 31
0.0
  0
LINE
  5
313
330
1F
100
AcDbEntity
  8
0
  6
Continuous
 62
     7
370
    30
100
AcDbLine
 10
7.52061174509312
 20
1.888560944968099
 30
0.0
 11
7.095611708063148
 21
1.888560944968099
 31
0.0
  0
LINE
  5
314
330
1F
100
AcDbEntity
  8
0
  6
Continuous
 62
     7
370
    30
100
AcDbLine
 10
7.52061174509312
 20
2.041970012773457
 30
0.0
 11
7.52061174509312
 21
1.888560944968099
 31
0.0
  0
ARC
  5
315
330
1F
100
AcDbEntity
  8
0
  6
Continuous
 62
     7
370
    30
100
AcDbCircle
 10
7.497611709518064
 20
2.150560976913373
 30
0.0
 40
0.1110000000000009
100
AcDbArc
 50
148.4801414201156
 51
281.9587374625928
  0
ARC
  5
316
330
1F
100
AcDbEntity
  8
0
  6
Continuous
 62
     7
370
    30
100
AcDbCircle
 10
7.424300234108229
 20
2.195521265760678
 30
0.0
 40
0.0250000000000015
100
AcDbArc
 50
328.4801414201152
 51
148.4801414201175
  0
ARC
  5
317
330
1F
100
AcDbEntity
  8
0
  6
Continuous
 62
     7
370
    30
100
AcDbCircle
 10
7.497611709518064
 20
2.150560976913373
 30
0.0
 40
0.0610000000000002
100
AcDbArc
 50
148.4801414201154
 51
67.84897855852091
  0
LINE
  5
318
330
1F
100
AcDbEntity
  8
0
  6
Continuous
 62
     7
370
    30
100
AcDbLine
 10
7.52061174509312
 20
3.650560996859809
 30
0.0
 11
7.52061174509312
 21
2.207058745654327
 31
0.0
  0
LINE
  5
319
330
1F
100
AcDbEntity
  8
0
  6
Continuous
 62
     7
370
    30
100
AcDbLine
 10
7.570611740822237
 20
3.650560996859809
 30
0.0
 11
7.52061174509312
 21
3.650560996859809
 31
0.0
  0
LINE
  5
31A
330
1F
100
AcDbEntity
  8
0
  6
Continuous
 62
     7
370
    30
100
AcDbLine
 10
7.570611740822237
 20
3.025560976913373
 30
0.0
 11
7.570611740822237
 21
3.650560996859809
 31
0.0
  0
LINE
  5
31B
330
1F
100
AcDbEntity
  8
0
  6
Continuous
 62
     7
370
    30
100
AcDbLine
 10
7.635428052058678
 20
3.025560976913373
 30
0.0
 11
7.570611740822237
 21
3.025560976913373
 31
0.0
  0
LINE
  5
31C
330
1F
100
AcDbEntity
  8
0
  6
Continuous
 62
     7
370
    30
100
AcDbLine
 10
7.626611727238948
 20
3.075560977225769
 30
0.0
 11
7.635428052058678
 21
3.025560976913373
 31
0.0
  0
LINE
  5
31D
330
1F
100
AcDbEntity
  8
0
  6
Continuous
 62
     7
370
    30
100
AcDbLine
 10
7.660175712838256
 20
3.115560974725718
 30
0.0
 11
7.626611727238948
 21
3.075560977225769
 31
0.0
  0
LINE
  5
31E
330
1F
100
AcDbEntity
  8
0
  6
Continuous
 62
     7
370
    30
100
AcDbLine
 10
7.666611738488738
 20
3.115560974725718
 30
0.0
 11
7.660175712838256
 21
3.115560974725718
 31
0.0
  0
ARC
  5
31F
330
1F
100
AcDbEntity
  8
0
  6
Continuous
 62
     7
370
    30
100
AcDbCircle
 10
7.666611709518065
 20
3.105560976913373
 30
0.0
 40
0.0100000000000002
100
AcDbArc
 50
0.0
 51
90.0
  0
LINE
  5
320
330
1F
100
AcDbEntity
  8
0
  6
Continuous
 62
     7
370
    30
100
AcDbLine
 10
7.676611722968064
 20
3.030253677676852
 30
0.0
 11
7.676611722968064
 21
3.105560981079831
 31
0.0
  0
ARC
  5
321
330
1F
100
AcDbEntity
  8
0
  6
Continuous
 62
     7
370
    30
100
AcDbCircle
 10
7.631611709518066
 20
3.030253677659691
 30
0.0
 40
0.0449999999999991
100
AcDbArc
 50
276.6997651777614
 51
0.0
  0
ARC
  5
322
330
1F
100
AcDbEntity
  8
0
  6
Continuous
 62
     7
370
    30
100
AcDbCircle
 10
7.645611709518065
 20
2.911073142336175
 30
0.0
 40
0.0750000000000011
100
AcDbArc
 50
96.69976517775953
 51
180.0
  0
LINE
  5
323
330
1F
100
AcDbEntity
  8
0
  6
Continuous
 62
     7
370
    30
100
AcDbLine
 10
7.920611710926049
 20
1.838560949238983
 30
0.0
 11
7.920611710926049
 21
1.888560944968099
 31
0.0
  0
ARC
  5
324
330
1F
100
AcDbEntity
  8
0
  6
Continuous
 62
     7
370
    30
100
AcDbCircle
 10
9.924611709518066
 20
3.105560976913373
 30
0.0
 40
0.0100000000000016
100
AcDbArc
 50
90.0
 51
180.0
  0
LINE
  5
325
330
1F
100
AcDbEntity
  8
0
  6
Continuous
 62
     7
370
    30
100
AcDbLine
 10
9.931047706197873
 20
3.115560974725718
 30
0.0
 11
9.92461168054739
 21
3.115560974725718
 31
0.0
  0
LINE
  5
326
330
1F
100
AcDbEntity
  8
0
  6
Continuous
 62
     7
370
    30
100
AcDbLine
 10
9.964611691797181
 20
3.075560977225769
 30
0.0
 11
9.931047706197873
 21
3.115560974725718
 31
0.0
  0
LINE
  5
327
330
1F
100
AcDbEntity
  8
0
  6
Continuous
 62
     7
370
    30
100
AcDbLine
 10
9.955795366977451
 20
3.025560976913373
 30
0.0
 11
9.964611691797181
 21
3.075560977225769
 31
0.0
  0
LINE
  5
328
330
1F
100
AcDbEntity
  8
0
  6
Continuous
 62
     7
370
    30
100
AcDbLine
 10
10.02061167821389
 20
3.025560976913373
 30
0.0
 11
9.955795366977451
 21
3.025560976913373
 31
0.0
  0
LINE
  5
329
330
1F
100
AcDbEntity
  8
0
  6
Continuous
 62
     7
370
    30
100
AcDbLine
 10
10.02061167821389
 20
3.650560996859809
 30
0.0
 11
10.02061167821389
 21
3.025560976913373
 31
0.0
  0
LINE
  5
32A
330
1F
100
AcDbEntity
  8
0
  6
Continuous
 62
     7
370
    30
100
AcDbLine
 10
10.07061167394301
 20
3.650560996859809
 30
0.0
 11
10.02061167821389
 21
3.650560996859809
 31
0.0
  0
LINE
  5
32B
330
1F
100
AcDbEntity
  8
0
  6
Continuous
 62
     7
370
    30
100
AcDbLine
 10
10.07061167394301
 20
2.207058745654327
 30
0.0
 11
10.07061167394301
 21
3.650560996859809
 31
0.0
  0
ARC
  5
32C
330
1F
100
AcDbEntity
  8
0
  6
Continuous
 62
     7
370
    30
100
AcDbCircle
 10
10.09361170951806
 20
2.150560976913373
 30
0.0
 40
0.0610000000000017
100
AcDbArc
 50
112.1510214414791
 51
31.51985857988373
  0
ARC
  5
32D
330
1F
100
AcDbEntity
  8
0
  6
Continuous
 62
     7
370
    30
100
AcDbCircle
 10
10.1669231849279
 20
2.195521265760678
 30
0.0
 40
0.0250000000000007
100
AcDbArc
 50
31.51985857988353
 51
211.5198585798865
  0
ARC
  5
32E
330
1F
100
AcDbEntity
  8
0
  6
Continuous
 62
     7
370
    30
100
AcDbCircle
 10
10.09361170951806
 20
2.150560976913373
 30
0.0
 40
0.1110000000000016
100
AcDbArc
 50
258.0412625374089
 51
31.51985857988412
  0
LINE
  5
32F
330
1F
100
AcDbEntity
  8
0
  6
Continuous
 62
     7
370
    30
100
AcDbLine
 10
10.07061167394301
 20
1.888560944968099
 30
0.0
 11
10.07061167394301
 21
2.041970012773457
 31
0.0
  0
LINE
  5
330
330
1F
100
AcDbEntity
  8
0
  6
Continuous
 62
     7
370
    30
100
AcDbLine
 10
10.49561171097298
 20
1.888560944968099
 30
0.0
 11
10.07061167394301
 21
1.888560944968099
 31
0.0
  0
LINE
  5
331
330
1F
100
AcDbEntity
  8
0
  6
Continuous
 62
     7
370
    30
100
AcDbLine
 10
10.49561171097298
 20
1.93156098822793
 30
0.0
 11
10.49561171097298
 21
1.888560944968099
 31
0.0
  0
LINE
  5
332
330
1F
100
AcDbEntity
  8
0
  6
Continuous
 62
     7
370
    30
100
AcDbLine
 10
10.5456117067021
 20
1.93156098822793
 30
0.0
 11
10.49561171097298
 21
1.93156098822793
 31
0.0
  0
LINE
  5
333
330
1F
100
AcDbEntity
  8
0
  6
Continuous
 62
     7
370
    30
100
AcDbLine
 10
10.5456117067021
 20
1.838560949238983
 30
0.0
 11
10.5456117067021
 21
1.93156098822793
 31
0.0
  0
LINE
  5
334
330
1F
100
AcDbEntity
  8
0
  6
Continuous
 62
     7
370
    30
100
AcDbLine
 10
9.670611708110082
 20
1.888560944968099
 30
0.0
 11
9.670611708110082
 21
1.838560949238983
 31
0.0
  0
LINE
  5
335
330
1F
100
AcDbEntity
  8
0
  6
Continuous
 62
     7
370
    30
100
AcDbLine
 10
10.02061167821389
 20
1.888560944968099
 30
0.0
 11
9.670611708110082
 21
1.888560944968099
 31
0.0
  0
LINE
  5
336
330
1F
100
AcDbEntity
  8
0
  6
Continuous
 62
     7
370
    30
100
AcDbLine
 10
10.02061167821389
 20
2.066942804285639
 30
0.0
 11
10.02061167821389
 21
1.888560944968099
 31
0.0
  0
ARC
  5
337
330
1F
100
AcDbEntity
  8
0
  6
Continuous
 62
     7
370
    30
100
AcDbCircle
 10
10.09361170951806
 20
2.150560976913373
 30
0.0
 40
0.1109999999999996
100
AcDbArc
 50
131.1214761681851
 51
228.8785238318157
  0
LINE
  5
338
330
1F
100
AcDbEntity
  8
0
  6
Continuous
 62
     7
370
    30
100
AcDbLine
 10
10.02061167821389
 20
2.911073144486583
 30
0.0
 11
10.02061167821389
 21
2.234179152357075
 31
0.0
  0
ARC
  5
339
330
1F
100
AcDbEntity
  8
0
  6
Continuous
 62
     7
370
    30
100
AcDbCircle
 10
9.945611709518065
 20
2.911073142336175
 30
0.0
 40
0.075
100
AcDbArc
 50
0.0
 51
83.30023482224047
  0
ARC
  5
33A
330
1F
100
AcDbEntity
  8
0
  6
Continuous
 62
     7
370
    30
100
AcDbCircle
 10
9.959611709518063
 20
3.030253677659691
 30
0.0
 40
0.0449999999999989
100
AcDbArc
 50
180.0
 51
263.3002348222425
  0
LINE
  5
33B
330
1F
100
AcDbEntity
  8
0
  6
Continuous
 62
     7
370
    30
100
AcDbLine
 10
9.914611696068064
 20
3.105560981079831
 30
0.0
 11
9.914611696068064
 21
3.030253677676852
 31
0.0
  0
LINE
  5
33C
330
1F
100
AcDbEntity
  8
0
  6
Continuous
 62
     7
370
    30
100
AcDbLine
 10
9.670611708110082
 20
1.838560949238983
 30
0.0
 11
10.5456117067021
 21
1.838560949238983
 31
0.0
  0
LINE
  5
33D
330
1F
100
AcDbEntity
  8
0
  6
Continuous
 62
     7
370
    30
100
AcDbLine
 10
7.151111640256529
 20
10.36056077570311
 30
0.0
 11
7.151111640256529
 21
4.259060914083507
 31
0.0
  0
LINE
  5
33E
330
1F
100
AcDbEntity
  8
0
  6
Continuous
 62
     7
370
    30
100
AcDbLine
 10
7.151111640256529
 20
10.36056077570311
 30
0.0
 11
10.4401117787796
 21
10.36056077570311
 31
0.0
  0
LINE
  5
33F
330
1F
100
AcDbEntity
  8
0
  6
Continuous
 62
     7
370
    30
100
AcDbLine
 10
10.4401117787796
 20
10.36056077570311
 30
0.0
 11
10.4401117787796
 21
4.259060914083507
 31
0.0
  0
LINE
  5
340
330
1F
100
AcDbEntity
  8
0
  6
Continuous
 62
     7
370
    30
100
AcDbLine
 10
7.151111640256529
 20
4.216060944156162
 30
0.0
 11
7.428674367161555
 21
4.216060944156162
 31
0.0
  0
LINE
  5
341
330
1F
100
AcDbEntity
  8
0
  6
Continuous
 62
     7
370
    30
100
AcDbLine
 10
7.468894595867375
 20
4.216060944156162
 30
0.0
 11
8.080904059215163
 21
4.216060944156162
 31
0.0
  0
LINE
  5
342
330
1F
100
AcDbEntity
  8
0
  6
Continuous
 62
     7
370
    30
100
AcDbLine
 10
8.260319319928094
 20
4.216060944156162
 30
0.0
 11
8.630611708945485
 21
4.216060944156162
 31
0.0
  0
LINE
  5
343
330
1F
100
AcDbEntity
  8
0
  6
Continuous
 62
     7
370
    30
100
AcDbLine
 10
8.670611711028714
 20
4.216060944156162
 30
0.0
 11
8.920611708007415
 21
4.216060944156162
 31
0.0
  0
LINE
  5
344
330
1F
100
AcDbEntity
  8
0
  6
Continuous
 62
     7
370
    30
100
AcDbLine
 10
8.960611710090644
 20
4.216060944156162
 30
0.0
 11
9.330904099108036
 21
4.216060944156162
 31
0.0
  0
LINE
  5
345
330
1F
100
AcDbEntity
  8
0
  6
Continuous
 62
     7
370
    30
100
AcDbLine
 10
9.510319359820967
 20
4.216060944156162
 30
0.0
 11
10.12232882316875
 21
4.216060944156162
 31
0.0
  0
LINE
  5
346
330
1F
100
AcDbEntity
  8
0
  6
Continuous
 62
     7
370
    30
100
AcDbLine
 10
10.16254905187457
 20
4.216060944156162
 30
0.0
 11
10.4401117787796
 21
4.216060944156162
 31
0.0
  0
LINE
  5
347
330
1F
100
AcDbEntity
  8
0
  6
Continuous
 62
     7
370
    30
100
AcDbLine
 10
7.151111640256529
 20
4.259060914083507
 30
0.0
 11
7.151111640256529
 21
4.216060944156162
 31
0.0
  0
LINE
  5
348
330
1F
100
AcDbEntity
  8
0
  6
Continuous
 62
     7
370
    30
100
AcDbLine
 10
10.4401117787796
 20
4.259060914083507
 30
0.0
 11
10.4401117787796
 21
4.216060944156162
 31
0.0
  0
LINE
  5
349
330
1F
100
AcDbEntity
  8
0
  6
Continuous
 62
     7
370
    30
100
AcDbLine
 10
10.48311174870694
 20
4.259060914083507
 30
0.0
 11
10.48311174870694
 21
10.36056077570311
 31
0.0
  0
LINE
  5
34A
330
1F
100
AcDbEntity
  8
0
  6
Continuous
 62
     7
370
    30
100
AcDbLine
 10
10.48311174870694
 20
4.259060914083507
 30
0.0
 11
10.4401117787796
 21
4.259060914083507
 31
0.0
  0
LINE
  5
34B
330
1F
100
AcDbEntity
  8
0
  6
Continuous
 62
     7
370
    30
100
AcDbLine
 10
10.4401117787796
 20
10.36056077570311
 30
0.0
 11
10.48311174870694
 21
10.36056077570311
 31
0.0
  0
LINE
  5
34C
330
1F
100
AcDbEntity
  8
0
  6
Continuous
 62
     7
370
    30
100
AcDbLine
 10
7.151111640256529
 20
10.40356118562537
 30
0.0
 11
7.151111640256529
 21
10.36056077570311
 31
0.0
  0
LINE
  5
34D
330
1F
100
AcDbEntity
  8
0
  6
Continuous
 62
     7
370
    30
100
AcDbLine
 10
10.4401117787796
 20
10.40356118562537
 30
0.0
 11
10.4401117787796
 21
10.36056077570311
 31
0.0
  0
LINE
  5
34E
330
1F
100
AcDbEntity
  8
0
  6
Continuous
 62
     7
370
    30
100
AcDbLine
 10
7.151111640256529
 20
4.259060914083507
 30
0.0
 11
7.108111670329184
 21
4.259060914083507
 31
0.0
  0
LINE
  5
34F
330
1F
100
AcDbEntity
  8
0
  6
Continuous
 62
     7
370
    30
100
AcDbLine
 10
7.108111670329184
 20
10.36056077570311
 30
0.0
 11
7.108111670329184
 21
4.259060914083507
 31
0.0
  0
LINE
  5
350
330
1F
100
AcDbEntity
  8
0
  6
Continuous
 62
     7
370
    30
100
AcDbLine
 10
7.108111670329184
 20
10.36056077570311
 30
0.0
 11
7.151111640256529
 21
10.36056077570311
 31
0.0
  0
LINE
  5
351
330
1F
100
AcDbEntity
  8
0
  6
Continuous
 62
     7
370
    30
100
AcDbLine
 10
7.151111640256529
 20
4.216060944156162
 30
0.0
 11
7.151111640256529
 21
4.201061004103416
 31
0.0
  0
LINE
  5
352
330
1F
100
AcDbEntity
  8
0
  6
Continuous
 62
     7
370
    30
100
AcDbLine
 10
10.4401117787796
 20
4.216060944156162
 30
0.0
 11
10.4401117787796
 21
4.201061004103416
 31
0.0
  0
LINE
  5
353
330
1F
100
AcDbEntity
  8
0
  6
Continuous
 62
     7
370
    30
100
AcDbLine
 10
7.151111640256529
 20
2.841060969939864
 30
0.0
 11
7.284155983316925
 21
2.841060969939864
 31
0.0
  0
LINE
  5
354
330
1F
100
AcDbEntity
  8
0
  6
Continuous
 62
     7
370
    30
100
AcDbLine
 10
7.324376358687716
 20
2.841060969939864
 30
0.0
 11
7.386190364607045
 21
2.841060969939864
 31
0.0
  0
LINE
  5
355
330
1F
100
AcDbEntity
  8
0
  6
Continuous
 62
     7
370
    30
100
AcDbLine
 10
7.418780494789747
 20
2.841060969939864
 30
0.0
 11
7.52061174509312
 21
2.841060969939864
 31
0.0
  0
LINE
  5
356
330
1F
100
AcDbEntity
  8
0
  6
Continuous
 62
     7
370
    30
100
AcDbLine
 10
7.570611740822237
 20
2.841060969939864
 30
0.0
 11
7.970972209157275
 21
2.841060969939864
 31
0.0
  0
LINE
  5
357
330
1F
100
AcDbEntity
  8
0
  6
Continuous
 62
     7
370
    30
100
AcDbLine
 10
7.996554026967266
 20
2.841060969939864
 30
0.0
 11
8.00259295720503
 21
2.841060969939864
 31
0.0
  0
LINE
  5
358
330
1F
100
AcDbEntity
  8
0
  6
Continuous
 62
     7
370
    30
100
AcDbLine
 10
8.087399117517029
 20
2.841060969939864
 30
0.0
 11
8.094375603590732
 21
2.841060969939864
 31
0.0
  0
LINE
  5
359
330
1F
100
AcDbEntity
  8
0
  6
Continuous
 62
     7
370
    30
100
AcDbLine
 10
8.246847812218768
 20
2.841060969939864
 30
0.0
 11
8.258009749941777
 21
2.841060969939864
 31
0.0
  0
LINE
  5
35A
330
1F
100
AcDbEntity
  8
0
  6
Continuous
 62
     7
370
    30
100
AcDbLine
 10
8.338630421938229
 20
2.841060969939864
 30
0.0
 11
8.344669425508476
 21
2.841060969939864
 31
0.0
  0
LINE
  5
35B
330
1F
100
AcDbEntity
  8
0
  6
Continuous
 62
     7
370
    30
100
AcDbLine
 10
8.370251243318467
 20
2.841060969939864
 30
0.0
 11
8.770611709361866
 21
2.841060969939864
 31
0.0
  0
LINE
  5
35C
330
1F
100
AcDbEntity
  8
0
  6
Continuous
 62
     7
370
    30
100
AcDbLine
 10
8.820611709674264
 20
2.841060969939864
 30
0.0
 11
9.220972175717662
 21
2.841060969939864
 31
0.0
  0
LINE
  5
35D
330
1F
100
AcDbEntity
  8
0
  6
Continuous
 62
     7
370
    30
100
AcDbLine
 10
9.246553993527654
 20
2.841060969939864
 30
0.0
 11
9.252592997097901
 21
2.841060969939864
 31
0.0
  0
LINE
  5
35E
330
1F
100
AcDbEntity
  8
0
  6
Continuous
 62
     7
370
    30
100
AcDbLine
 10
9.337399084077415
 20
2.841060969939864
 30
0.0
 11
9.344375606817362
 21
2.841060969939864
 31
0.0
  0
LINE
  5
35F
330
1F
100
AcDbEntity
  8
0
  6
Continuous
 62
     7
370
    30
100
AcDbLine
 10
9.496847815445397
 20
2.841060969939864
 30
0.0
 11
9.508009753168407
 21
2.841060969939864
 31
0.0
  0
LINE
  5
360
330
1F
100
AcDbEntity
  8
0
  6
Continuous
 62
     7
370
    30
100
AcDbLine
 10
9.5886304618311
 20
2.841060969939864
 30
0.0
 11
9.594669392068862
 21
2.841060969939864
 31
0.0
  0
LINE
  5
361
330
1F
100
AcDbEntity
  8
0
  6
Continuous
 62
     7
370
    30
100
AcDbLine
 10
9.620251209878854
 20
2.841060969939864
 30
0.0
 11
10.02061167821389
 21
2.841060969939864
 31
0.0
  0
LINE
  5
362
330
1F
100
AcDbEntity
  8
0
  6
Continuous
 62
     7
370
    30
100
AcDbLine
 10
10.07061167394301
 20
2.841060969939864
 30
0.0
 11
10.17244292424638
 21
2.841060969939864
 31
0.0
  0
LINE
  5
363
330
1F
100
AcDbEntity
  8
0
  6
Continuous
 62
     7
370
    30
100
AcDbLine
 10
10.20503305442908
 20
2.841060969939864
 30
0.0
 11
10.26684706034841
 21
2.841060969939864
 31
0.0
  0
LINE
  5
364
330
1F
100
AcDbEntity
  8
0
  6
Continuous
 62
     7
370
    30
100
AcDbLine
 10
10.3070674357192
 20
2.841060969939864
 30
0.0
 11
10.4401117787796
 21
2.841060969939864
 31
0.0
  0
LINE
  5
365
330
1F
100
AcDbEntity
  8
0
  6
Continuous
 62
     7
370
    30
100
AcDbLine
 10
7.151111640256529
 20
4.201061004103416
 30
0.0
 11
7.151111640256529
 21
2.841060969939864
 31
0.0
  0
LINE
  5
366
330
1F
100
AcDbEntity
  8
0
  6
Continuous
 62
     7
370
    30
100
AcDbLine
 10
10.4401117787796
 20
4.201061004103416
 30
0.0
 11
10.4401117787796
 21
2.841060969939864
 31
0.0
  0
SPLINE
  5
367
330
1F
100
AcDbEntity
  8
0
  6
Continuous
 62
     7
370
    30
100
AcDbSpline
210
0.0
220
0.0
230
1.0
 70
     8
 71
     3
 72
    15
 73
    11
 74
     0
 42
0.00000001
 43
0.00000001
 40
0.0
 40
0.0
 40
0.0
 40
0.0
 40
0.1299698311880872
 40
0.2518706407887105
 40
0.3715661731070499
 40
0.4952138657848216
 40
0.5890044972503714
 40
0.7039622247303376
 40
0.8408269744341483
 40
1.0
 40
1.0
 40
1.0
 40
1.0
 10
10.07661173796309
 20
4.502560994483132
 30
0.0
 10
10.07801489544214
 20
4.502546640917275
 30
0.0
 10
10.08073409704566
 20
4.502518824909536
 30
0.0
 10
10.08820437154985
 20
4.50167059293036
 30
0.0
 10
10.09782513124128
 20
4.499168352811577
 30
0.0
 10
10.10797053465443
 20
4.494458710108931
 30
0.0
 10
10.11776286677877
 20
4.487424153967574
 30
0.0
 10
10.12668227983563
 20
4.477991131255071
 30
0.0
 10
10.13492608948965
 20
4.464383219951059
 30
0.0
 10
10.13710206476272
 20
4.453105490528509
 30
0.0
 10
10.13827203899136
 20
4.447041702513398
 30
0.0
  0
LINE
  5
368
330
1F
100
AcDbEntity
  8
0
  6
Continuous
 62
     7
370
    30
100
AcDbLine
 10
10.0984912185428
 20
4.442860577480777
 30
0.0
 11
10.13827203899136
 21
4.447041702513398
 31
0.0
  0
SPLINE
  5
369
330
1F
100
AcDbEntity
  8
0
  6
Continuous
 62
     7
370
    30
100
AcDbSpline
210
0.0
220
0.0
230
1.0
 70
     8
 71
     3
 72
    12
 73
     8
 74
     0
 42
0.00000001
 43
0.00000001
 40
0.0
 40
0.0
 40
0.0
 40
0.0
 40
0.3713654217393936
 40
0.6426866736375293
 40
0.8048427027324067
 40
0.8977518121723796
 40
1.0
 40
1.0
 40
1.0
 40
1.0
 10
10.07661173796309
 20
4.462560909900857
 30
0.0
 10
10.07761395482414
 20
4.46254363014802
 30
0.0
 10
10.07934839584364
 20
4.462513725729835
 30
0.0
 10
10.08624125580564
 20
4.461105151171033
 30
0.0
 10
10.09343328208236
 20
4.455362140690958
 30
0.0
 10
10.0972464210861
 20
4.449175837645033
 30
0.0
 10
10.0980632564152
 20
4.445031767791032
 30
0.0
 10
10.0984912185428
 20
4.442860577480777
 30
0.0
  0
LINE
  5
36A
330
1F
100
AcDbEntity
  8
0
  6
Continuous
 62
     7
370
    30
100
AcDbLine
 10
10.07661173796309
 20
4.462560909900857
 30
0.0
 11
10.07661173796309
 21
4.502560994483132
 31
0.0
  0
LINE
  5
36B
330
1F
100
AcDbEntity
  8
0
  6
Continuous
 62
     7
370
    30
100
AcDbLine
 10
10.07661173796309
 20
4.462560909900857
 30
0.0
 11
8.982611712611405
 21
4.462560909900857
 31
0.0
  0
LINE
  5
36C
330
1F
100
AcDbEntity
  8
0
  6
Continuous
 62
     7
370
    30
100
AcDbLine
 10
8.982611712611405
 20
4.502560994483132
 30
0.0
 11
8.982611712611405
 21
4.462560909900857
 31
0.0
  0
LINE
  5
36D
330
1F
100
AcDbEntity
  8
0
  6
Continuous
 62
     7
370
    30
100
AcDbLine
 10
10.07661173796309
 20
4.502560994483132
 30
0.0
 11
8.982611712611405
 21
4.502560994483132
 31
0.0
  0
LINE
  5
36E
330
1F
100
AcDbEntity
  8
0
  6
Continuous
 62
     7
370
    30
100
AcDbLine
 10
8.920611708007415
 20
4.440561017378825
 30
0.0
 11
8.960611710090644
 21
4.440561017378825
 31
0.0
  0
SPLINE
  5
36F
330
1F
100
AcDbEntity
  8
0
  6
Continuous
 62
     7
370
    30
100
AcDbSpline
210
0.0
220
0.0
230
1.0
 70
     8
 71
     3
 72
    14
 73
    10
 74
     0
 42
0.00000001
 43
0.00000001
 40
0.0
 40
0.0
 40
0.0
 40
0.0
 40
0.1565871427737054
 40
0.2925015206188506
 40
0.4081661824945488
 40
0.5043306603608132
 40
0.6193503224347086
 40
0.736732847506242
 40
1.0
 40
1.0
 40
1.0
 40
1.0
 10
8.920611708007415
 20
4.440561017378825
 30
0.0
 10
8.921186347337729
 20
4.446968690476076
 30
0.0
 10
8.922259761635651
 20
4.458938090334679
 30
0.0
 10
8.929704497841588
 20
4.473980539936586
 30
0.0
 10
8.938484618240473
 20
4.484723300399015
 30
0.0
 10
8.948364344260375
 20
4.49269879900164
 30
0.0
 10
8.958659543034697
 20
4.49813341772953
 30
0.0
 10
8.972605121165264
 20
4.502371592285916
 30
0.0
 10
8.978520490401928
 20
4.502483556878135
 30
0.0
 10
8.982611712611405
 20
4.502560994483132
 30
0.0
  0
SPLINE
  5
370
330
1F
100
AcDbEntity
  8
0
  6
Continuous
 62
     7
370
    30
100
AcDbSpline
210
0.0
220
0.0
230
1.0
 70
     8
 71
     3
 72
    13
 73
     9
 74
     0
 42
0.00000001
 43
0.00000001
 40
0.0
 40
0.0
 40
0.0
 40
0.0
 40
0.0986537469934908
 40
0.1888876900399737
 40
0.2721405259989805
 40
0.3502633735067606
 40
0.6095409256724538
 40
0.9999999999999999
 40
0.9999999999999999
 40
0.9999999999999999
 40
0.9999999999999999
 10
8.960611710090644
 20
4.440561017378825
 30
0.0
 10
8.960825411125578
 20
4.442856403361708
 30
0.0
 10
8.961234574447577
 20
4.44725127095944
 30
0.0
 10
8.963957837454828
 20
4.452600475457991
 30
0.0
 10
8.967141372904848
 20
4.456427420372433
 30
0.0
 10
8.97279378302449
 20
4.460811195974302
 30
0.0
 10
8.979145818008078
 20
4.462471609775336
 30
0.0
 10
8.981310717041568
 20
4.462527389242849
 30
0.0
 10
8.982611712611405
 20
4.462560909900857
 30
0.0
  0
LINE
  5
371
330
1F
100
AcDbEntity
  8
0
  6
Continuous
 62
     7
370
    30
100
AcDbLine
 10
10.09962992538836
 20
4.432026142641093
 30
0.0
 11
10.13941074583693
 21
4.436207267673714
 31
0.0
  0
LWPOLYLINE
  5
372
330
1F
100
AcDbEntity
  8
0
  6
Continuous
 62
     7
370
    30
100
AcDbPolyline
 90
        9
 70
   128
 43
0.0
 10
10.13941074583693
 20
4.436207267673714
 10
10.13926774748886
 20
4.437568465282376
 10
10.13912474914078
 20
4.438928929566177
 10
10.13898189745768
 20
4.440288220530198
 10
10.13883919243956
 20
4.441645311519633
 10
10.13869692741635
 20
4.443000055869511
 10
10.13855480905811
 20
4.444351426925024
 10
10.13841327735977
 20
4.445698838026283
 10
10.13827203899136
 20
4.447041702513398
  0
LWPOLYLINE
  5
373
330
1F
100
AcDbEntity
  8
0
  6
Continuous
 62
     7
370
    30
100
AcDbPolyline
 90
        9
 70
   128
 43
0.0
 10
10.09962992538836
 20
4.432026142641093
 10
10.09948692704029
 20
4.433387340249756
 10
10.09934392869222
 20
4.434747804533556
 10
10.09920107700912
 20
4.436106948832605
 10
10.09905837199099
 20
4.437464186487014
 10
10.09891596030281
 20
4.438818930836891
 10
10.09877398860955
 20
4.440170301892404
 10
10.09863231024623
 20
4.441517712993662
 10
10.0984912185428
 20
4.442860577480777
  0
LINE
  5
374
330
1F
100
AcDbEntity
  8
0
  6
Continuous
 62
     7
370
    30
100
AcDbLine
 10
8.960611710090644
 20
4.440561017378825
 30
0.0
 11
8.960611710090644
 21
4.433353020646218
 31
0.0
  0
LINE
  5
375
330
1F
100
AcDbEntity
  8
0
  6
Continuous
 62
     7
370
    30
100
AcDbLine
 10
8.960611710090644
 20
4.433353020646218
 30
0.0
 11
8.920611708007415
 21
4.433353020646218
 31
0.0
  0
LINE
  5
376
330
1F
100
AcDbEntity
  8
0
  6
Continuous
 62
     7
370
    30
100
AcDbLine
 10
8.920611708007415
 20
4.440561017378825
 30
0.0
 11
8.920611708007415
 21
4.433353020646218
 31
0.0
  0
LINE
  5
377
330
1F
100
AcDbEntity
  8
0
  6
Continuous
 62
     7
370
    30
100
AcDbLine
 10
10.28660825873203
 20
2.704097683818099
 30
0.0
 11
10.32108200715501
 21
2.707721041960757
 31
0.0
  0
LINE
  5
378
330
1F
100
AcDbEntity
  8
0
  6
Continuous
 62
     7
370
    30
100
AcDbLine
 10
10.32108200715501
 20
2.707721041960757
 30
0.0
 11
10.13941074583693
 21
4.436207267673714
 31
0.0
  0
LINE
  5
379
330
1F
100
AcDbEntity
  8
0
  6
Continuous
 62
     7
370
    30
100
AcDbLine
 10
10.280092813999
 20
2.715037167444251
 30
0.0
 11
10.09962992538836
 21
4.432026142641093
 31
0.0
  0
LINE
  5
37A
330
1F
100
AcDbEntity
  8
0
  6
Continuous
 62
     7
370
    30
100
AcDbLine
 10
8.960611710090644
 20
4.433353020646218
 30
0.0
 11
8.960611710090644
 21
3.744560997630446
 31
0.0
  0
LINE
  5
37B
330
1F
100
AcDbEntity
  8
0
  6
Continuous
 62
     7
370
    30
100
AcDbLine
 10
8.920611708007415
 20
4.433353020646218
 30
0.0
 11
8.920611708007415
 21
3.650560996859809
 31
0.0
  0
LINE
  5
37C
330
1F
100
AcDbEntity
  8
0
  6
Continuous
 62
     7
370
    30
100
AcDbLine
 10
8.608611706424725
 20
4.462560909900857
 30
0.0
 11
8.608611706424725
 21
4.502560994483132
 31
0.0
  0
LINE
  5
37D
330
1F
100
AcDbEntity
  8
0
  6
Continuous
 62
     7
370
    30
100
AcDbLine
 10
7.514611681073038
 20
4.502560994483132
 30
0.0
 11
7.514611681073038
 21
4.462560909900857
 31
0.0
  0
LINE
  5
37E
330
1F
100
AcDbEntity
  8
0
  6
Continuous
 62
     7
370
    30
100
AcDbLine
 10
7.514611681073038
 20
4.462560909900857
 30
0.0
 11
8.608611706424725
 21
4.462560909900857
 31
0.0
  0
LINE
  5
37F
330
1F
100
AcDbEntity
  8
0
  6
Continuous
 62
     7
370
    30
100
AcDbLine
 10
7.514611681073038
 20
4.502560994483132
 30
0.0
 11
8.608611706424725
 21
4.502560994483132
 31
0.0
  0
LINE
  5
380
330
1F
100
AcDbEntity
  8
0
  6
Continuous
 62
     7
370
    30
100
AcDbLine
 10
8.630611708945485
 20
4.440561017378825
 30
0.0
 11
8.670611711028714
 21
4.440561017378825
 31
0.0
  0
SPLINE
  5
381
330
1F
100
AcDbEntity
  8
0
  6
Continuous
 62
     7
370
    30
100
AcDbSpline
210
0.0
220
0.0
230
1.0
 70
     8
 71
     3
 72
    13
 73
     9
 74
     0
 42
0.00000001
 43
0.00000001
 40
0.0
 40
0.0
 40
0.0
 40
0.0
 40
0.3814959650663671
 40
0.6474647275832119
 40
0.7247054866488796
 40
0.8080773753128795
 40
0.8993911135348315
 40
1.0
 40
1.0
 40
1.0
 40
1.0
 10
8.608611706424725
 20
4.462560909900857
 30
0.0
 10
8.60978337454237
 20
4.462546934020361
 30
0.0
 10
8.61177189827021
 20
4.462523214530548
 30
0.0
 10
8.618321116258747
 20
4.460882765658845
 30
0.0
 10
8.624007377467388
 20
4.456493693788659
 30
0.0
 10
8.627208517667025
 20
4.452691843867163
 30
0.0
 10
8.62997412518281
 20
4.447322416731169
 30
0.0
 10
8.630392427979348
 20
4.442886431338867
 30
0.0
 10
8.630611708945485
 20
4.440561017378825
 30
0.0
  0
SPLINE
  5
382
330
1F
100
AcDbEntity
  8
0
  6
Continuous
 62
     7
370
    30
100
AcDbSpline
210
0.0
220
0.0
230
1.0
 70
     8
 71
     3
 72
    15
 73
    11
 74
     0
 42
0.00000001
 43
0.00000001
 40
0.0
 40
0.0
 40
0.0
 40
0.0
 40
0.1331399576744648
 40
0.256217259566335
 40
0.3748338852333023
 40
0.4951982120851281
 40
0.5896663616088127
 40
0.7048567252517237
 40
0.8415029195887582
 40
0.9999999999999999
 40
0.9999999999999999
 40
0.9999999999999999
 40
0.9999999999999999
 10
8.608611706424725
 20
4.502560994483132
 30
0.0
 10
8.610315654442
 20
4.502536111826639
 30
0.0
 10
8.613594766881683
 20
4.502488227133201
 30
0.0
 10
8.621811275465639
 20
4.501377998536625
 30
0.0
 10
8.631987954478385
 20
4.498381541648049
 30
0.0
 10
8.642550292805177
 20
4.492922995942083
 30
0.0
 10
8.65253446754382
 20
4.484912065046919
 30
0.0
 10
8.661354821966691
 20
4.474246348063938
 30
0.0
 10
8.66892292492536
 20
4.459143781560512
 30
0.0
 10
8.670021667255543
 20
4.447053636113621
 30
0.0
 10
8.670611711028714
 20
4.440561017378825
 30
0.0
  0
SPLINE
  5
383
330
1F
100
AcDbEntity
  8
0
  6
Continuous
 62
     7
370
    30
100
AcDbSpline
210
0.0
220
0.0
230
1.0
 70
     8
 71
     3
 72
    14
 73
    10
 74
     0
 42
0.00000001
 43
0.00000001
 40
0.0
 40
0.0
 40
0.0
 40
0.0
 40
0.1552769247954139
 40
0.2906403843410215
 40
0.4065492230848166
 40
0.5037829378662023
 40
0.6158211446246592
 40
0.7325586773408068
 40
0.9999999999999999
 40
0.9999999999999999
 40
0.9999999999999999
 40
0.9999999999999999
 10
7.452951380044764
 20
4.447041702513398
 30
0.0
 10
7.454079675267683
 20
4.452956470020617
 30
0.0
 10
7.456191567666836
 20
4.464027466589173
 30
0.0
 10
7.464221526833789
 20
4.477551227156051
 30
0.0
 10
7.47310427670506
 20
4.487132964722859
 30
0.0
 10
7.482690034881679
 20
4.494090630501494
 30
0.0
 10
7.492353840270158
 20
4.49874177191201
 30
0.0
 10
7.505205495890459
 20
4.502380002677336
 30
0.0
 10
7.510751145915895
 20
4.502486710890382
 30
0.0
 10
7.514611681073038
 20
4.502560994483132
 30
0.0
  0
SPLINE
  5
384
330
1F
100
AcDbEntity
  8
0
  6
Continuous
 62
     7
370
    30
100
AcDbSpline
210
0.0
220
0.0
230
1.0
 70
     8
 71
     3
 72
    12
 73
     8
 74
     0
 42
0.00000001
 43
0.00000001
 40
0.0
 40
0.0
 40
0.0
 40
0.0
 40
0.0982684865497667
 40
0.189053076769919
 40
0.3530663764673817
 40
0.6099261010159643
 40
0.9999999999999999
 40
0.9999999999999999
 40
0.9999999999999999
 40
0.9999999999999999
 10
7.492732200493332
 20
4.442860577480777
 30
0.0
 10
7.493146340493706
 20
4.444979967880904
 30
0.0
 10
7.4939430805681
 20
4.449057340903412
 30
0.0
 10
7.497685505402739
 20
4.455262232578135
 30
0.0
 10
7.504798958885703
 20
4.460957601418732
 30
0.0
 10
7.511307449170559
 20
4.462430109664215
 30
0.0
 10
7.513368783029041
 20
4.462511708947935
 30
0.0
 10
7.514611681073038
 20
4.462560909900857
 30
0.0
  0
LINE
  5
385
330
1F
100
AcDbEntity
  8
0
  6
Continuous
 62
     7
370
    30
100
AcDbLine
 10
7.452951380044764
 20
4.447041702513398
 30
0.0
 11
7.492732200493332
 21
4.442860577480777
 31
0.0
  0
LWPOLYLINE
  5
386
330
1F
100
AcDbEntity
  8
0
  6
Continuous
 62
     7
370
    30
100
AcDbPolyline
 90
        9
 70
   128
 43
0.0
 10
7.492732200493332
 20
4.442860577480777
 10
7.492591108789902
 20
4.441517712993662
 10
7.492449430426583
 20
4.440170301892404
 10
7.492307458733318
 20
4.438818930836891
 10
7.492165047045138
 20
4.437464186487014
 10
7.492022342027011
 20
4.436106948832605
 10
7.491879490343912
 20
4.434747804533556
 10
7.491736491995842
 20
4.433387340249756
 10
7.491593493647771
 20
4.432026142641093
  0
LINE
  5
387
330
1F
100
AcDbEntity
  8
0
  6
Continuous
 62
     7
370
    30
100
AcDbLine
 10
7.491593493647771
 20
4.432026142641093
 30
0.0
 11
7.451812673199203
 21
4.436207267673714
 31
0.0
  0
LWPOLYLINE
  5
388
330
1F
100
AcDbEntity
  8
0
  6
Continuous
 62
     7
370
    30
100
AcDbPolyline
 90
        9
 70
   128
 43
0.0
 10
7.452951380044764
 20
4.447041702513398
 10
7.452810141676363
 20
4.445698838026283
 10
7.452668609978015
 20
4.444351426925024
 10
7.452526491619778
 20
4.443000055869511
 10
7.452384226596569
 20
4.441645311519633
 10
7.452241521578443
 20
4.440288220530198
 10
7.452098669895345
 20
4.438928929566177
 10
7.451955671547274
 20
4.437568465282376
 10
7.451812673199203
 20
4.436207267673714
  0
LINE
  5
389
330
1F
100
AcDbEntity
  8
0
  6
Continuous
 62
     7
370
    30
100
AcDbLine
 10
8.670611711028714
 20
4.433353020646218
 30
0.0
 11
8.670611711028714
 21
4.440561017378825
 31
0.0
  0
LINE
  5
38A
330
1F
100
AcDbEntity
  8
0
  6
Continuous
 62
     7
370
    30
100
AcDbLine
 10
8.630611708945485
 20
4.433353020646218
 30
0.0
 11
8.670611711028714
 21
4.433353020646218
 31
0.0
  0
LINE
  5
38B
330
1F
100
AcDbEntity
  8
0
  6
Continuous
 62
     7
370
    30
100
AcDbLine
 10
8.630611708945485
 20
4.433353020646218
 30
0.0
 11
8.630611708945485
 21
4.440561017378825
 31
0.0
  0
LINE
  5
38C
330
1F
100
AcDbEntity
  8
0
  6
Continuous
 62
     7
370
    30
100
AcDbLine
 10
8.670611711028714
 20
3.650560996859809
 30
0.0
 11
8.670611711028714
 21
4.433353020646218
 31
0.0
  0
LINE
  5
38D
330
1F
100
AcDbEntity
  8
0
  6
Continuous
 62
     7
370
    30
100
AcDbLine
 10
8.630611708945485
 20
3.744560997630446
 30
0.0
 11
8.630611708945485
 21
4.433353020646218
 31
0.0
  0
LINE
  5
38E
330
1F
100
AcDbEntity
  8
0
  6
Continuous
 62
     7
370
    30
100
AcDbLine
 10
7.3046151603041
 20
2.704097683818099
 30
0.0
 11
7.270141411881117
 21
2.707721041960757
 31
0.0
  0
LINE
  5
38F
330
1F
100
AcDbEntity
  8
0
  6
Continuous
 62
     7
370
    30
100
AcDbLine
 10
7.491593493647771
 20
4.432026142641093
 30
0.0
 11
7.311130605037127
 21
2.715037167444251
 31
0.0
  0
LINE
  5
390
330
1F
100
AcDbEntity
  8
0
  6
Continuous
 62
     7
370
    30
100
AcDbLine
 10
7.451812673199203
 20
4.436207267673714
 30
0.0
 11
7.270141411881117
 21
2.707721041960757
 31
0.0
  0
LINE
  5
391
330
1F
100
AcDbEntity
  8
0
  6
Continuous
 62
     7
370
    30
100
AcDbLine
 10
9.593111736729696
 20
2.663560988768126
 30
0.0
 11
9.607111715000753
 21
2.663560988768126
 31
0.0
  0
LINE
  5
392
330
1F
100
AcDbEntity
  8
0
  6
Continuous
 62
     7
370
    30
100
AcDbLine
 10
9.234111707262006
 20
2.663560988768126
 30
0.0
 11
9.248111722199305
 21
2.663560988768126
 31
0.0
  0
ARC
  5
393
330
1F
100
AcDbEntity
  8
0
  6
Continuous
 62
     7
370
    30
100
AcDbCircle
 10
9.428736685198565
 20
2.908683381400043
 30
0.0
 40
0.353406273297803
100
AcDbArc
 50
273.5047857690886
 51
284.5111077851143
  0
ARC
  5
394
330
1F
100
AcDbEntity
  8
0
  6
Continuous
 62
     7
370
    30
100
AcDbCircle
 10
9.462043476944656
 20
2.59222424206426
 30
0.0
 40
0.0381265146684778
100
AcDbArc
 50
222.3274918057256
 51
252.1253379102552
  0
ARC
  5
395
330
1F
100
AcDbEntity
  8
0
  6
Continuous
 62
     7
370
    30
100
AcDbCircle
 10
9.420611692798257
 20
2.938471850775221
 30
0.0
 40
0.3721565103199272
100
AcDbArc
 50
267.9604905132535
 51
272.0395094867483
  0
ARC
  5
396
330
1F
100
AcDbEntity
  8
0
  6
Continuous
 62
     7
370
    30
100
AcDbCircle
 10
9.379180334916574
 20
2.592223539532247
 30
0.0
 40
0.0381257264661326
100
AcDbArc
 50
287.8744289128508
 51
317.6728573798343
  0
ARC
  5
397
330
1F
100
AcDbEntity
  8
0
  6
Continuous
 62
     7
370
    30
100
AcDbCircle
 10
9.412486784817832
 20
2.908683682634232
 30
0.0
 40
0.3534065768878649
100
AcDbArc
 50
255.4888969569089
 51
266.4952094888915
  0
LINE
  5
398
330
1F
100
AcDbEntity
  8
0
  6
Continuous
 62
     7
370
    30
100
AcDbLine
 10
9.32390557662223
 20
2.566315328824955
 30
0.0
 11
9.323934542954277
 21
2.566551092768057
 31
0.0
  0
LINE
  5
399
330
1F
100
AcDbEntity
  8
0
  6
Continuous
 62
     7
370
    30
100
AcDbLine
 10
9.491111675043113
 20
4.899928324061833
 30
0.0
 11
9.350111710553403
 21
4.899928324061833
 31
0.0
  0
LINE
  5
39A
330
1F
100
AcDbEntity
  8
0
  6
Continuous
 62
     7
370
    30
100
AcDbLine
 10
9.515611692016828
 20
4.885783220800606
 30
0.0
 11
9.325611693579688
 21
4.885783220800606
 31
0.0
  0
LINE
  5
39B
330
1F
100
AcDbEntity
  8
0
  6
Continuous
 62
     7
370
    30
100
AcDbLine
 10
9.491111675043113
 20
4.955483842279746
 30
0.0
 11
9.350111710553403
 21
4.955483842279746
 31
0.0
  0
LINE
  5
39C
330
1F
100
AcDbEntity
  8
0
  6
Continuous
 62
     7
370
    30
100
AcDbLine
 10
9.515611692016828
 20
4.941338739018518
 30
0.0
 11
9.325611693579688
 21
4.941338739018518
 31
0.0
  0
LINE
  5
39D
330
1F
100
AcDbEntity
  8
0
  6
Continuous
 62
     7
370
    30
100
AcDbLine
 10
9.4206117294645
 20
4.871638117539379
 30
0.0
 11
9.491111675043113
 21
4.871638117539379
 31
0.0
  0
LINE
  5
39E
330
1F
100
AcDbEntity
  8
0
  6
Continuous
 62
     7
370
    30
100
AcDbLine
 10
9.350111710553403
 20
4.871638117539379
 30
0.0
 11
9.4206117294645
 21
4.871638117539379
 31
0.0
  0
LINE
  5
39F
330
1F
100
AcDbEntity
  8
0
  6
Continuous
 62
     7
370
    30
100
AcDbLine
 10
9.4206117294645
 20
4.927193635757292
 30
0.0
 11
9.491111675043113
 21
4.927193635757292
 31
0.0
  0
LINE
  5
3A0
330
1F
100
AcDbEntity
  8
0
  6
Continuous
 62
     7
370
    30
100
AcDbLine
 10
9.350111710553403
 20
4.927193635757292
 30
0.0
 11
9.4206117294645
 21
4.927193635757292
 31
0.0
  0
LINE
  5
3A1
330
1F
100
AcDbEntity
  8
0
  6
Continuous
 62
     7
370
    30
100
AcDbLine
 10
9.515611692016828
 20
4.663561001263982
 30
0.0
 11
9.325611693579688
 21
4.663561001263982
 31
0.0
  0
LINE
  5
3A2
330
1F
100
AcDbEntity
  8
0
  6
Continuous
 62
     7
370
    30
100
AcDbLine
 10
9.4206117294645
 20
4.649415898002755
 30
0.0
 11
9.491111675043113
 21
4.649415898002755
 31
0.0
  0
LINE
  5
3A3
330
1F
100
AcDbEntity
  8
0
  6
Continuous
 62
     7
370
    30
100
AcDbLine
 10
9.350111710553403
 20
4.649415898002755
 30
0.0
 11
9.4206117294645
 21
4.649415898002755
 31
0.0
  0
LINE
  5
3A4
330
1F
100
AcDbEntity
  8
0
  6
Continuous
 62
     7
370
    30
100
AcDbLine
 10
9.515611692016828
 20
4.830227702582693
 30
0.0
 11
9.325611693579688
 21
4.830227702582693
 31
0.0
  0
LINE
  5
3A5
330
1F
100
AcDbEntity
  8
0
  6
Continuous
 62
     7
370
    30
100
AcDbLine
 10
9.4206117294645
 20
4.816082599321466
 30
0.0
 11
9.491111675043113
 21
4.816082599321466
 31
0.0
  0
LINE
  5
3A6
330
1F
100
AcDbEntity
  8
0
  6
Continuous
 62
     7
370
    30
100
AcDbLine
 10
9.350111710553403
 20
4.816082599321466
 30
0.0
 11
9.4206117294645
 21
4.816082599321466
 31
0.0
  0
LINE
  5
3A7
330
1F
100
AcDbEntity
  8
0
  6
Continuous
 62
     7
370
    30
100
AcDbLine
 10
9.491111675043113
 20
4.844372659178948
 30
0.0
 11
9.350111710553403
 21
4.844372659178948
 31
0.0
  0
LINE
  5
3A8
330
1F
100
AcDbEntity
  8
0
  6
Continuous
 62
     7
370
    30
100
AcDbLine
 10
9.515611692016828
 20
4.719116519481895
 30
0.0
 11
9.325611693579688
 21
4.719116519481895
 31
0.0
  0
LINE
  5
3A9
330
1F
100
AcDbEntity
  8
0
  6
Continuous
 62
     7
370
    30
100
AcDbLine
 10
9.4206117294645
 20
4.704971416220668
 30
0.0
 11
9.491111675043113
 21
4.704971416220668
 31
0.0
  0
LINE
  5
3AA
330
1F
100
AcDbEntity
  8
0
  6
Continuous
 62
     7
370
    30
100
AcDbLine
 10
9.350111710553403
 20
4.704971416220668
 30
0.0
 11
9.4206117294645
 21
4.704971416220668
 31
0.0
  0
LINE
  5
3AB
330
1F
100
AcDbEntity
  8
0
  6
Continuous
 62
     7
370
    30
100
AcDbLine
 10
9.491111675043113
 20
4.788817140961035
 30
0.0
 11
9.350111710553403
 21
4.788817140961035
 31
0.0
  0
LINE
  5
3AC
330
1F
100
AcDbEntity
  8
0
  6
Continuous
 62
     7
370
    30
100
AcDbLine
 10
9.515611692016828
 20
4.774672037699808
 30
0.0
 11
9.325611693579688
 21
4.774672037699808
 31
0.0
  0
LINE
  5
3AD
330
1F
100
AcDbEntity
  8
0
  6
Continuous
 62
     7
370
    30
100
AcDbLine
 10
9.491111675043113
 20
4.733261622743122
 30
0.0
 11
9.350111710553403
 21
4.733261622743122
 31
0.0
  0
LINE
  5
3AE
330
1F
100
AcDbEntity
  8
0
  6
Continuous
 62
     7
370
    30
100
AcDbLine
 10
9.4206117294645
 20
4.760526934438581
 30
0.0
 11
9.491111675043113
 21
4.760526934438581
 31
0.0
  0
LINE
  5
3AF
330
1F
100
AcDbEntity
  8
0
  6
Continuous
 62
     7
370
    30
100
AcDbLine
 10
9.350111710553403
 20
4.760526934438581
 30
0.0
 11
9.4206117294645
 21
4.760526934438581
 31
0.0
  0
LINE
  5
3B0
330
1F
100
AcDbEntity
  8
0
  6
Continuous
 62
     7
370
    30
100
AcDbLine
 10
9.491111675043113
 20
4.677706104525209
 30
0.0
 11
9.350111710553403
 21
4.677706104525209
 31
0.0
  0
LINE
  5
3B1
330
1F
100
AcDbEntity
  8
0
  6
Continuous
 62
     7
370
    30
100
AcDbLine
 10
9.491111675043113
 20
4.566594921424411
 30
0.0
 11
9.350111710553403
 21
4.566594921424411
 31
0.0
  0
LINE
  5
3B2
330
1F
100
AcDbEntity
  8
0
  6
Continuous
 62
     7
370
    30
100
AcDbLine
 10
9.515611692016828
 20
4.552449818163185
 30
0.0
 11
9.325611693579688
 21
4.552449818163185
 31
0.0
  0
LINE
  5
3B3
330
1F
100
AcDbEntity
  8
0
  6
Continuous
 62
     7
370
    30
100
AcDbLine
 10
9.491111675043113
 20
4.455483884988586
 30
0.0
 11
9.350111710553403
 21
4.455483884988586
 31
0.0
  0
LINE
  5
3B4
330
1F
100
AcDbEntity
  8
0
  6
Continuous
 62
     7
370
    30
100
AcDbLine
 10
9.515611692016828
 20
4.441338781727358
 30
0.0
 11
9.325611693579688
 21
4.441338781727358
 31
0.0
  0
LINE
  5
3B5
330
1F
100
AcDbEntity
  8
0
  6
Continuous
 62
     7
370
    30
100
AcDbLine
 10
9.491111675043113
 20
4.622150439642324
 30
0.0
 11
9.350111710553403
 21
4.622150439642324
 31
0.0
  0
LINE
  5
3B6
330
1F
100
AcDbEntity
  8
0
  6
Continuous
 62
     7
370
    30
100
AcDbLine
 10
9.515611692016828
 20
4.608005483046069
 30
0.0
 11
9.325611693579688
 21
4.608005483046069
 31
0.0
  0
LINE
  5
3B7
330
1F
100
AcDbEntity
  8
0
  6
Continuous
 62
     7
370
    30
100
AcDbLine
 10
9.4206117294645
 20
4.427193678466132
 30
0.0
 11
9.491111675043113
 21
4.427193678466132
 31
0.0
  0
LINE
  5
3B8
330
1F
100
AcDbEntity
  8
0
  6
Continuous
 62
     7
370
    30
100
AcDbLine
 10
9.350111710553403
 20
4.427193678466132
 30
0.0
 11
9.4206117294645
 21
4.427193678466132
 31
0.0
  0
LINE
  5
3B9
330
1F
100
AcDbEntity
  8
0
  6
Continuous
 62
     7
370
    30
100
AcDbLine
 10
9.4206117294645
 20
4.593860379784843
 30
0.0
 11
9.491111675043113
 21
4.593860379784843
 31
0.0
  0
LINE
  5
3BA
330
1F
100
AcDbEntity
  8
0
  6
Continuous
 62
     7
370
    30
100
AcDbLine
 10
9.350111710553403
 20
4.593860379784843
 30
0.0
 11
9.4206117294645
 21
4.593860379784843
 31
0.0
  0
LINE
  5
3BB
330
1F
100
AcDbEntity
  8
0
  6
Continuous
 62
     7
370
    30
100
AcDbLine
 10
9.491111675043113
 20
4.233261592119476
 30
0.0
 11
9.350111710553403
 21
4.233261592119476
 31
0.0
  0
LINE
  5
3BC
330
1F
100
AcDbEntity
  8
0
  6
Continuous
 62
     7
370
    30
100
AcDbLine
 10
9.515611692016828
 20
4.219116562190735
 30
0.0
 11
9.325611693579688
 21
4.219116562190735
 31
0.0
  0
LINE
  5
3BD
330
1F
100
AcDbEntity
  8
0
  6
Continuous
 62
     7
370
    30
100
AcDbLine
 10
9.491111675043113
 20
4.288817183669875
 30
0.0
 11
9.350111710553403
 21
4.288817183669875
 31
0.0
  0
LINE
  5
3BE
330
1F
100
AcDbEntity
  8
0
  6
Continuous
 62
     7
370
    30
100
AcDbLine
 10
9.515611692016828
 20
4.274672080408648
 30
0.0
 11
9.325611693579688
 21
4.274672080408648
 31
0.0
  0
LINE
  5
3BF
330
1F
100
AcDbEntity
  8
0
  6
Continuous
 62
     7
370
    30
100
AcDbLine
 10
9.4206117294645
 20
4.204971458929508
 30
0.0
 11
9.491111675043113
 21
4.204971458929508
 31
0.0
  0
LINE
  5
3C0
330
1F
100
AcDbEntity
  8
0
  6
Continuous
 62
     7
370
    30
100
AcDbLine
 10
9.350111710553403
 20
4.204971458929508
 30
0.0
 11
9.4206117294645
 21
4.204971458929508
 31
0.0
  0
LINE
  5
3C1
330
1F
100
AcDbEntity
  8
0
  6
Continuous
 62
     7
370
    30
100
AcDbLine
 10
9.491111675043113
 20
4.3999282201057
 30
0.0
 11
9.350111710553403
 21
4.3999282201057
 31
0.0
  0
LINE
  5
3C2
330
1F
100
AcDbEntity
  8
0
  6
Continuous
 62
     7
370
    30
100
AcDbLine
 10
9.515611692016828
 20
4.385783263509446
 30
0.0
 11
9.325611693579688
 21
4.385783263509446
 31
0.0
  0
LINE
  5
3C3
330
1F
100
AcDbEntity
  8
0
  6
Continuous
 62
     7
370
    30
100
AcDbLine
 10
9.491111675043113
 20
4.344372701887788
 30
0.0
 11
9.350111710553403
 21
4.344372701887788
 31
0.0
  0
LINE
  5
3C4
330
1F
100
AcDbEntity
  8
0
  6
Continuous
 62
     7
370
    30
100
AcDbLine
 10
9.515611692016828
 20
4.330227598626561
 30
0.0
 11
9.325611693579688
 21
4.330227598626561
 31
0.0
  0
LINE
  5
3C5
330
1F
100
AcDbEntity
  8
0
  6
Continuous
 62
     7
370
    30
100
AcDbLine
 10
9.491111675043113
 20
4.177706073901563
 30
0.0
 11
9.350111710553403
 21
4.177706073901563
 31
0.0
  0
LINE
  5
3C6
330
1F
100
AcDbEntity
  8
0
  6
Continuous
 62
     7
370
    30
100
AcDbLine
 10
9.515611692016828
 20
4.163560970640336
 30
0.0
 11
9.325611693579688
 21
4.163560970640336
 31
0.0
  0
LINE
  5
3C7
330
1F
100
AcDbEntity
  8
0
  6
Continuous
 62
     7
370
    30
100
AcDbLine
 10
9.4206117294645
 20
4.316082495365334
 30
0.0
 11
9.491111675043113
 21
4.316082495365334
 31
0.0
  0
LINE
  5
3C8
330
1F
100
AcDbEntity
  8
0
  6
Continuous
 62
     7
370
    30
100
AcDbLine
 10
9.350111710553403
 20
4.316082495365334
 30
0.0
 11
9.4206117294645
 21
4.316082495365334
 31
0.0
  0
LINE
  5
3C9
330
1F
100
AcDbEntity
  8
0
  6
Continuous
 62
     7
370
    30
100
AcDbLine
 10
9.4206117294645
 20
4.260526977147421
 30
0.0
 11
9.491111675043113
 21
4.260526977147421
 31
0.0
  0
LINE
  5
3CA
330
1F
100
AcDbEntity
  8
0
  6
Continuous
 62
     7
370
    30
100
AcDbLine
 10
9.350111710553403
 20
4.260526977147421
 30
0.0
 11
9.4206117294645
 21
4.260526977147421
 31
0.0
  0
LINE
  5
3CB
330
1F
100
AcDbEntity
  8
0
  6
Continuous
 62
     7
370
    30
100
AcDbLine
 10
9.4206117294645
 20
4.371638160248219
 30
0.0
 11
9.491111675043113
 21
4.371638160248219
 31
0.0
  0
LINE
  5
3CC
330
1F
100
AcDbEntity
  8
0
  6
Continuous
 62
     7
370
    30
100
AcDbLine
 10
9.350111710553403
 20
4.371638160248219
 30
0.0
 11
9.4206117294645
 21
4.371638160248219
 31
0.0
  0
LINE
  5
3CD
330
1F
100
AcDbEntity
  8
0
  6
Continuous
 62
     7
370
    30
100
AcDbLine
 10
9.515611692016828
 20
4.108005452422423
 30
0.0
 11
9.325611693579688
 21
4.108005452422423
 31
0.0
  0
LINE
  5
3CE
330
1F
100
AcDbEntity
  8
0
  6
Continuous
 62
     7
370
    30
100
AcDbLine
 10
9.4206117294645
 20
4.093860349161196
 30
0.0
 11
9.491111675043113
 21
4.093860349161196
 31
0.0
  0
LINE
  5
3CF
330
1F
100
AcDbEntity
  8
0
  6
Continuous
 62
     7
370
    30
100
AcDbLine
 10
9.350111710553403
 20
4.093860349161196
 30
0.0
 11
9.4206117294645
 21
4.093860349161196
 31
0.0
  0
LINE
  5
3D0
330
1F
100
AcDbEntity
  8
0
  6
Continuous
 62
     7
370
    30
100
AcDbLine
 10
9.515611692016828
 20
3.941338751103713
 30
0.0
 11
9.325611693579688
 21
3.941338751103713
 31
0.0
  0
LINE
  5
3D1
330
1F
100
AcDbEntity
  8
0
  6
Continuous
 62
     7
370
    30
100
AcDbLine
 10
9.4206117294645
 20
3.927193647842486
 30
0.0
 11
9.491111675043113
 21
3.927193647842486
 31
0.0
  0
LINE
  5
3D2
330
1F
100
AcDbEntity
  8
0
  6
Continuous
 62
     7
370
    30
100
AcDbLine
 10
9.350111710553403
 20
3.927193647842486
 30
0.0
 11
9.4206117294645
 21
3.927193647842486
 31
0.0
  0
LINE
  5
3D3
330
1F
100
AcDbEntity
  8
0
  6
Continuous
 62
     7
370
    30
100
AcDbLine
 10
9.515611692016828
 20
4.052449860872025
 30
0.0
 11
9.325611693579688
 21
4.052449860872025
 31
0.0
  0
LINE
  5
3D4
330
1F
100
AcDbEntity
  8
0
  6
Continuous
 62
     7
370
    30
100
AcDbLine
 10
9.4206117294645
 20
4.038304757610797
 30
0.0
 11
9.491111675043113
 21
4.038304757610797
 31
0.0
  0
LINE
  5
3D5
330
1F
100
AcDbEntity
  8
0
  6
Continuous
 62
     7
370
    30
100
AcDbLine
 10
9.350111710553403
 20
4.038304757610797
 30
0.0
 11
9.4206117294645
 21
4.038304757610797
 31
0.0
  0
LINE
  5
3D6
330
1F
100
AcDbEntity
  8
0
  6
Continuous
 62
     7
370
    30
100
AcDbLine
 10
9.515611692016828
 20
3.996894342654111
 30
0.0
 11
9.325611693579688
 21
3.996894342654111
 31
0.0
  0
LINE
  5
3D7
330
1F
100
AcDbEntity
  8
0
  6
Continuous
 62
     7
370
    30
100
AcDbLine
 10
9.4206117294645
 20
3.982749239392885
 30
0.0
 11
9.491111675043113
 21
3.982749239392885
 31
0.0
  0
LINE
  5
3D8
330
1F
100
AcDbEntity
  8
0
  6
Continuous
 62
     7
370
    30
100
AcDbLine
 10
9.350111710553403
 20
3.982749239392885
 30
0.0
 11
9.4206117294645
 21
3.982749239392885
 31
0.0
  0
LINE
  5
3D9
330
1F
100
AcDbEntity
  8
0
  6
Continuous
 62
     7
370
    30
100
AcDbLine
 10
9.491111675043113
 20
4.122150482351164
 30
0.0
 11
9.350111710553403
 21
4.122150482351164
 31
0.0
  0
LINE
  5
3DA
330
1F
100
AcDbEntity
  8
0
  6
Continuous
 62
     7
370
    30
100
AcDbLine
 10
9.4206117294645
 20
4.149415867379109
 30
0.0
 11
9.491111675043113
 21
4.149415867379109
 31
0.0
  0
LINE
  5
3DB
330
1F
100
AcDbEntity
  8
0
  6
Continuous
 62
     7
370
    30
100
AcDbLine
 10
9.350111710553403
 20
4.149415867379109
 30
0.0
 11
9.4206117294645
 21
4.149415867379109
 31
0.0
  0
LINE
  5
3DC
330
1F
100
AcDbEntity
  8
0
  6
Continuous
 62
     7
370
    30
100
AcDbLine
 10
9.491111675043113
 20
4.011039372582852
 30
0.0
 11
9.350111710553403
 21
4.011039372582852
 31
0.0
  0
LINE
  5
3DD
330
1F
100
AcDbEntity
  8
0
  6
Continuous
 62
     7
370
    30
100
AcDbLine
 10
9.491111675043113
 20
3.955483854364939
 30
0.0
 11
9.350111710553403
 21
3.955483854364939
 31
0.0
  0
LINE
  5
3DE
330
1F
100
AcDbEntity
  8
0
  6
Continuous
 62
     7
370
    30
100
AcDbLine
 10
9.491111675043113
 20
4.066594964133251
 30
0.0
 11
9.350111710553403
 21
4.066594964133251
 31
0.0
  0
LINE
  5
3DF
330
1F
100
AcDbEntity
  8
0
  6
Continuous
 62
     7
370
    30
100
AcDbLine
 10
9.515611692016828
 20
3.774672123117488
 30
0.0
 11
9.325611693579688
 21
3.774672123117488
 31
0.0
  0
LINE
  5
3E0
330
1F
100
AcDbEntity
  8
0
  6
Continuous
 62
     7
370
    30
100
AcDbLine
 10
9.4206117294645
 20
3.760527019856261
 30
0.0
 11
9.491111675043113
 21
3.760527019856261
 31
0.0
  0
LINE
  5
3E1
330
1F
100
AcDbEntity
  8
0
  6
Continuous
 62
     7
370
    30
100
AcDbLine
 10
9.350111710553403
 20
3.760527019856261
 30
0.0
 11
9.4206117294645
 21
3.760527019856261
 31
0.0
  0
LINE
  5
3E2
330
1F
100
AcDbEntity
  8
0
  6
Continuous
 62
     7
370
    30
100
AcDbLine
 10
9.515611692016828
 20
3.830227641335401
 30
0.0
 11
9.325611693579688
 21
3.830227641335401
 31
0.0
  0
LINE
  5
3E3
330
1F
100
AcDbEntity
  8
0
  6
Continuous
 62
     7
370
    30
100
AcDbLine
 10
9.4206117294645
 20
3.816082538074174
 30
0.0
 11
9.491111675043113
 21
3.816082538074174
 31
0.0
  0
LINE
  5
3E4
330
1F
100
AcDbEntity
  8
0
  6
Continuous
 62
     7
370
    30
100
AcDbLine
 10
9.350111710553403
 20
3.816082538074174
 30
0.0
 11
9.4206117294645
 21
3.816082538074174
 31
0.0
  0
LINE
  5
3E5
330
1F
100
AcDbEntity
  8
0
  6
Continuous
 62
     7
370
    30
100
AcDbLine
 10
9.491111675043113
 20
3.844372744596627
 30
0.0
 11
9.350111710553403
 21
3.844372744596627
 31
0.0
  0
LINE
  5
3E6
330
1F
100
AcDbEntity
  8
0
  6
Continuous
 62
     7
370
    30
100
AcDbLine
 10
9.491111675043113
 20
3.788817153046228
 30
0.0
 11
9.350111710553403
 21
3.788817153046228
 31
0.0
  0
LINE
  5
3E7
330
1F
100
AcDbEntity
  8
0
  6
Continuous
 62
     7
370
    30
100
AcDbLine
 10
9.515611692016828
 20
3.8857832328858
 30
0.0
 11
9.325611693579688
 21
3.8857832328858
 31
0.0
  0
LINE
  5
3E8
330
1F
100
AcDbEntity
  8
0
  6
Continuous
 62
     7
370
    30
100
AcDbLine
 10
9.4206117294645
 20
3.871638129624573
 30
0.0
 11
9.491111675043113
 21
3.871638129624573
 31
0.0
  0
LINE
  5
3E9
330
1F
100
AcDbEntity
  8
0
  6
Continuous
 62
     7
370
    30
100
AcDbLine
 10
9.350111710553403
 20
3.871638129624573
 30
0.0
 11
9.4206117294645
 21
3.871638129624573
 31
0.0
  0
LINE
  5
3EA
330
1F
100
AcDbEntity
  8
0
  6
Continuous
 62
     7
370
    30
100
AcDbLine
 10
9.491111675043113
 20
3.89992826281454
 30
0.0
 11
9.350111710553403
 21
3.89992826281454
 31
0.0
  0
LINE
  5
3EB
330
1F
100
AcDbEntity
  8
0
  6
Continuous
 62
     7
370
    30
100
AcDbLine
 10
9.514541917708284
 20
2.885783199138189
 30
0.0
 11
9.512611733339272
 21
2.885783199138189
 31
0.0
  0
LINE
  5
3EC
330
1F
100
AcDbEntity
  8
0
  6
Continuous
 62
     7
370
    30
100
AcDbLine
 10
9.491111675043113
 20
2.844372720015578
 30
0.0
 11
9.350111710553403
 21
2.844372720015578
 31
0.0
  0
LINE
  5
3ED
330
1F
100
AcDbEntity
  8
0
  6
Continuous
 62
     7
370
    30
100
AcDbLine
 10
9.494181519580009
 20
2.830227635087473
 30
0.0
 11
9.326650631577788
 21
2.830227635087473
 31
0.0
  0
LINE
  5
3EE
330
1F
100
AcDbEntity
  8
0
  6
Continuous
 62
     7
370
    30
100
AcDbLine
 10
9.32861172558973
 20
2.941338754022345
 30
0.0
 11
9.328059018641314
 21
2.941338754022345
 31
0.0
  0
LINE
  5
3EF
330
1F
100
AcDbEntity
  8
0
  6
Continuous
 62
     7
370
    30
100
AcDbLine
 10
9.491111675043113
 20
2.788817165131422
 30
0.0
 11
9.350111710553403
 21
2.788817165131422
 31
0.0
  0
LINE
  5
3F0
330
1F
100
AcDbEntity
  8
0
  6
Continuous
 62
     7
370
    30
100
AcDbLine
 10
9.515611692016828
 20
2.774672080203317
 30
0.0
 11
9.325611693579688
 21
2.774672080203317
 31
0.0
  0
LINE
  5
3F1
330
1F
100
AcDbEntity
  8
0
  6
Continuous
 62
     7
370
    30
100
AcDbLine
 10
9.4206117294645
 20
2.760527013608333
 30
0.0
 11
9.491111675043113
 21
2.760527013608333
 31
0.0
  0
LINE
  5
3F2
330
1F
100
AcDbEntity
  8
0
  6
Continuous
 62
     7
370
    30
100
AcDbLine
 10
9.350111710553403
 20
2.760527013608333
 30
0.0
 11
9.4206117294645
 21
2.760527013608333
 31
0.0
  0
LINE
  5
3F3
330
1F
100
AcDbEntity
  8
0
  6
Continuous
 62
     7
370
    30
100
AcDbLine
 10
9.4206117294645
 20
2.816082568492489
 30
0.0
 11
9.491111675043113
 21
2.816082568492489
 31
0.0
  0
LINE
  5
3F4
330
1F
100
AcDbEntity
  8
0
  6
Continuous
 62
     7
370
    30
100
AcDbLine
 10
9.350111710553403
 20
2.816082568492489
 30
0.0
 11
9.4206117294645
 21
2.816082568492489
 31
0.0
  0
LINE
  5
3F5
330
1F
100
AcDbEntity
  8
0
  6
Continuous
 62
     7
370
    30
100
AcDbLine
 10
9.491111675043113
 20
2.733261610247266
 30
0.0
 11
9.350111710553403
 21
2.733261610247266
 31
0.0
  0
LINE
  5
3F6
330
1F
100
AcDbEntity
  8
0
  6
Continuous
 62
     7
370
    30
100
AcDbLine
 10
9.491111675043113
 20
4.993358898077203
 30
0.0
 11
9.350111710553403
 21
4.993358898077203
 31
0.0
  0
LINE
  5
3F7
330
1F
100
AcDbEntity
  8
0
  6
Continuous
 62
     7
370
    30
100
AcDbLine
 10
7.984111704035376
 20
2.663560988768126
 30
0.0
 11
7.998111682306432
 21
2.663560988768126
 31
0.0
  0
LINE
  5
3F8
330
1F
100
AcDbEntity
  8
0
  6
Continuous
 62
     7
370
    30
100
AcDbLine
 10
8.343111696836825
 20
2.663560988768126
 30
0.0
 11
8.357111711774124
 21
2.663560988768126
 31
0.0
  0
ARC
  5
3F9
330
1F
100
AcDbEntity
  8
0
  6
Continuous
 62
     7
370
    30
100
AcDbCircle
 10
8.212043084119568
 20
2.592223539532269
 30
0.0
 40
0.0381257264661567
100
AcDbArc
 50
222.3271426201783
 51
252.1255710871429
  0
ARC
  5
3FA
330
1F
100
AcDbEntity
  8
0
  6
Continuous
 62
     7
370
    30
100
AcDbCircle
 10
8.170611726237873
 20
2.938471850775221
 30
0.0
 40
0.3721565103199272
100
AcDbArc
 50
267.9604905132533
 51
272.039509486748
  0
ARC
  5
3FB
330
1F
100
AcDbEntity
  8
0
  6
Continuous
 62
     7
370
    30
100
AcDbCircle
 10
8.129179942091472
 20
2.59222424206426
 30
0.0
 40
0.0381265146684788
100
AcDbArc
 50
287.8746620897489
 51
317.6725081942778
  0
ARC
  5
3FC
330
1F
100
AcDbEntity
  8
0
  6
Continuous
 62
     7
370
    30
100
AcDbCircle
 10
8.162486733837563
 20
2.908683381400043
 30
0.0
 40
0.3534062732978029
100
AcDbArc
 50
255.4888922148876
 51
266.4952142309132
  0
LWPOLYLINE
  5
3FD
330
1F
100
AcDbEntity
  8
0
  6
Continuous
 62
     7
370
    30
100
AcDbPolyline
 90
        9
 70
   128
 43
0.0
 10
8.073934539727647
 20
2.566551092768057
 10
8.073921853207535
 20
2.56644795062623
 10
8.073912833311734
 20
2.566374288143852
 10
8.073907406707756
 20
2.566330068654679
 10
8.073905573395601
 20
2.566315328824955
 10
8.073907406707756
 20
2.566330068654679
 10
8.073912833311734
 20
2.566374288143852
 10
8.073921853207535
 20
2.56644795062623
 10
8.073934539727647
 20
2.566551092768057
  0
ARC
  5
3FE
330
1F
100
AcDbEntity
  8
0
  6
Continuous
 62
     7
370
    30
100
AcDbCircle
 10
8.178736634218296
 20
2.908683682634232
 30
0.0
 40
0.353406576887865
100
AcDbArc
 50
273.5047905111104
 51
284.511103043093
  0
LINE
  5
3FF
330
1F
100
AcDbEntity
  8
0
  6
Continuous
 62
     7
370
    30
100
AcDbLine
 10
8.241111708482727
 20
2.733261610247266
 30
0.0
 11
8.100111743993017
 21
2.733261610247266
 31
0.0
  0
LINE
  5
400
330
1F
100
AcDbEntity
  8
0
  6
Continuous
 62
     7
370
    30
100
AcDbLine
 10
8.265611725456441
 20
2.774672080203317
 30
0.0
 11
8.075611727019302
 21
2.774672080203317
 31
0.0
  0
LINE
  5
401
330
1F
100
AcDbEntity
  8
0
  6
Continuous
 62
     7
370
    30
100
AcDbLine
 10
8.100111743993017
 20
2.760527013608333
 30
0.0
 11
8.241111708482727
 21
2.760527013608333
 31
0.0
  0
LINE
  5
402
330
1F
100
AcDbEntity
  8
0
  6
Continuous
 62
     7
370
    30
100
AcDbLine
 10
8.241111708482727
 20
2.844372720015578
 30
0.0
 11
8.100111743993017
 21
2.844372720015578
 31
0.0
  0
LINE
  5
403
330
1F
100
AcDbEntity
  8
0
  6
Continuous
 62
     7
370
    30
100
AcDbLine
 10
8.244181516353379
 20
2.830227635087473
 30
0.0
 11
8.076650628351159
 21
2.830227635087473
 31
0.0
  0
LINE
  5
404
330
1F
100
AcDbEntity
  8
0
  6
Continuous
 62
     7
370
    30
100
AcDbLine
 10
8.241111708482727
 20
2.788817165131422
 30
0.0
 11
8.100111743993017
 21
2.788817165131422
 31
0.0
  0
LINE
  5
405
330
1F
100
AcDbEntity
  8
0
  6
Continuous
 62
     7
370
    30
100
AcDbLine
 10
8.100111743993017
 20
2.816082568492489
 30
0.0
 11
8.241111708482727
 21
2.816082568492489
 31
0.0
  0
LINE
  5
406
330
1F
100
AcDbEntity
  8
0
  6
Continuous
 62
     7
370
    30
100
AcDbLine
 10
8.078611685696858
 20
2.941338754022345
 30
0.0
 11
8.078059052080928
 21
2.941338754022345
 31
0.0
  0
LINE
  5
407
330
1F
100
AcDbEntity
  8
0
  6
Continuous
 62
     7
370
    30
100
AcDbLine
 10
8.264541877815413
 20
2.885783199138189
 30
0.0
 11
8.2626116934464
 21
2.885783199138189
 31
0.0
  0
LINE
  5
408
330
1F
100
AcDbEntity
  8
0
  6
Continuous
 62
     7
370
    30
100
AcDbLine
 10
8.265611725456441
 20
3.774672123117488
 30
0.0
 11
8.075611727019302
 21
3.774672123117488
 31
0.0
  0
LINE
  5
409
330
1F
100
AcDbEntity
  8
0
  6
Continuous
 62
     7
370
    30
100
AcDbLine
 10
8.100111743993017
 20
3.760527019856261
 30
0.0
 11
8.241111708482727
 21
3.760527019856261
 31
0.0
  0
LINE
  5
40A
330
1F
100
AcDbEntity
  8
0
  6
Continuous
 62
     7
370
    30
100
AcDbLine
 10
8.265611725456441
 20
3.830227641335401
 30
0.0
 11
8.075611727019302
 21
3.830227641335401
 31
0.0
  0
LINE
  5
40B
330
1F
100
AcDbEntity
  8
0
  6
Continuous
 62
     7
370
    30
100
AcDbLine
 10
8.100111743993017
 20
3.816082538074174
 30
0.0
 11
8.241111708482727
 21
3.816082538074174
 31
0.0
  0
LINE
  5
40C
330
1F
100
AcDbEntity
  8
0
  6
Continuous
 62
     7
370
    30
100
AcDbLine
 10
8.241111708482727
 20
3.844372744596627
 30
0.0
 11
8.100111743993017
 21
3.844372744596627
 31
0.0
  0
LINE
  5
40D
330
1F
100
AcDbEntity
  8
0
  6
Continuous
 62
     7
370
    30
100
AcDbLine
 10
8.241111708482727
 20
3.788817153046228
 30
0.0
 11
8.100111743993017
 21
3.788817153046228
 31
0.0
  0
LINE
  5
40E
330
1F
100
AcDbEntity
  8
0
  6
Continuous
 62
     7
370
    30
100
AcDbLine
 10
8.241111708482727
 20
3.955483854364939
 30
0.0
 11
8.100111743993017
 21
3.955483854364939
 31
0.0
  0
LINE
  5
40F
330
1F
100
AcDbEntity
  8
0
  6
Continuous
 62
     7
370
    30
100
AcDbLine
 10
8.265611725456441
 20
3.941338751103713
 30
0.0
 11
8.075611727019302
 21
3.941338751103713
 31
0.0
  0
LINE
  5
410
330
1F
100
AcDbEntity
  8
0
  6
Continuous
 62
     7
370
    30
100
AcDbLine
 10
8.265611725456441
 20
3.996894342654111
 30
0.0
 11
8.075611727019302
 21
3.996894342654111
 31
0.0
  0
LINE
  5
411
330
1F
100
AcDbEntity
  8
0
  6
Continuous
 62
     7
370
    30
100
AcDbLine
 10
8.100111743993017
 20
3.982749239392885
 30
0.0
 11
8.241111708482727
 21
3.982749239392885
 31
0.0
  0
LINE
  5
412
330
1F
100
AcDbEntity
  8
0
  6
Continuous
 62
     7
370
    30
100
AcDbLine
 10
8.100111743993017
 20
3.927193647842486
 30
0.0
 11
8.241111708482727
 21
3.927193647842486
 31
0.0
  0
LINE
  5
413
330
1F
100
AcDbEntity
  8
0
  6
Continuous
 62
     7
370
    30
100
AcDbLine
 10
8.265611725456441
 20
3.8857832328858
 30
0.0
 11
8.075611727019302
 21
3.8857832328858
 31
0.0
  0
LINE
  5
414
330
1F
100
AcDbEntity
  8
0
  6
Continuous
 62
     7
370
    30
100
AcDbLine
 10
8.100111743993017
 20
3.871638129624573
 30
0.0
 11
8.241111708482727
 21
3.871638129624573
 31
0.0
  0
LINE
  5
415
330
1F
100
AcDbEntity
  8
0
  6
Continuous
 62
     7
370
    30
100
AcDbLine
 10
8.241111708482727
 20
3.89992826281454
 30
0.0
 11
8.100111743993017
 21
3.89992826281454
 31
0.0
  0
LINE
  5
416
330
1F
100
AcDbEntity
  8
0
  6
Continuous
 62
     7
370
    30
100
AcDbLine
 10
8.265611725456441
 20
4.108005452422423
 30
0.0
 11
8.075611727019302
 21
4.108005452422423
 31
0.0
  0
LINE
  5
417
330
1F
100
AcDbEntity
  8
0
  6
Continuous
 62
     7
370
    30
100
AcDbLine
 10
8.100111743993017
 20
4.093860349161196
 30
0.0
 11
8.241111708482727
 21
4.093860349161196
 31
0.0
  0
LINE
  5
418
330
1F
100
AcDbEntity
  8
0
  6
Continuous
 62
     7
370
    30
100
AcDbLine
 10
8.241111708482727
 20
4.011039372582852
 30
0.0
 11
8.100111743993017
 21
4.011039372582852
 31
0.0
  0
LINE
  5
419
330
1F
100
AcDbEntity
  8
0
  6
Continuous
 62
     7
370
    30
100
AcDbLine
 10
8.241111708482727
 20
4.066594964133251
 30
0.0
 11
8.100111743993017
 21
4.066594964133251
 31
0.0
  0
LINE
  5
41A
330
1F
100
AcDbEntity
  8
0
  6
Continuous
 62
     7
370
    30
100
AcDbLine
 10
8.265611725456441
 20
4.052449860872025
 30
0.0
 11
8.075611727019302
 21
4.052449860872025
 31
0.0
  0
LINE
  5
41B
330
1F
100
AcDbEntity
  8
0
  6
Continuous
 62
     7
370
    30
100
AcDbLine
 10
8.100111743993017
 20
4.038304757610797
 30
0.0
 11
8.241111708482727
 21
4.038304757610797
 31
0.0
  0
LINE
  5
41C
330
1F
100
AcDbEntity
  8
0
  6
Continuous
 62
     7
370
    30
100
AcDbLine
 10
8.241111708482727
 20
4.177706073901563
 30
0.0
 11
8.100111743993017
 21
4.177706073901563
 31
0.0
  0
LINE
  5
41D
330
1F
100
AcDbEntity
  8
0
  6
Continuous
 62
     7
370
    30
100
AcDbLine
 10
8.265611725456441
 20
4.163560970640336
 30
0.0
 11
8.075611727019302
 21
4.163560970640336
 31
0.0
  0
LINE
  5
41E
330
1F
100
AcDbEntity
  8
0
  6
Continuous
 62
     7
370
    30
100
AcDbLine
 10
8.100111743993017
 20
4.149415867379109
 30
0.0
 11
8.241111708482727
 21
4.149415867379109
 31
0.0
  0
LINE
  5
41F
330
1F
100
AcDbEntity
  8
0
  6
Continuous
 62
     7
370
    30
100
AcDbLine
 10
8.265611725456441
 20
4.219116562190735
 30
0.0
 11
8.075611727019302
 21
4.219116562190735
 31
0.0
  0
LINE
  5
420
330
1F
100
AcDbEntity
  8
0
  6
Continuous
 62
     7
370
    30
100
AcDbLine
 10
8.100111743993017
 20
4.204971458929508
 30
0.0
 11
8.241111708482727
 21
4.204971458929508
 31
0.0
  0
LINE
  5
421
330
1F
100
AcDbEntity
  8
0
  6
Continuous
 62
     7
370
    30
100
AcDbLine
 10
8.241111708482727
 20
4.122150482351164
 30
0.0
 11
8.100111743993017
 21
4.122150482351164
 31
0.0
  0
LINE
  5
422
330
1F
100
AcDbEntity
  8
0
  6
Continuous
 62
     7
370
    30
100
AcDbLine
 10
8.265611725456441
 20
4.330227598626561
 30
0.0
 11
8.075611727019302
 21
4.330227598626561
 31
0.0
  0
LINE
  5
423
330
1F
100
AcDbEntity
  8
0
  6
Continuous
 62
     7
370
    30
100
AcDbLine
 10
8.100111743993017
 20
4.316082495365334
 30
0.0
 11
8.241111708482727
 21
4.316082495365334
 31
0.0
  0
LINE
  5
424
330
1F
100
AcDbEntity
  8
0
  6
Continuous
 62
     7
370
    30
100
AcDbLine
 10
8.241111708482727
 20
4.288817183669875
 30
0.0
 11
8.100111743993017
 21
4.288817183669875
 31
0.0
  0
LINE
  5
425
330
1F
100
AcDbEntity
  8
0
  6
Continuous
 62
     7
370
    30
100
AcDbLine
 10
8.265611725456441
 20
4.274672080408648
 30
0.0
 11
8.075611727019302
 21
4.274672080408648
 31
0.0
  0
LINE
  5
426
330
1F
100
AcDbEntity
  8
0
  6
Continuous
 62
     7
370
    30
100
AcDbLine
 10
8.241111708482727
 20
4.233261592119476
 30
0.0
 11
8.100111743993017
 21
4.233261592119476
 31
0.0
  0
LINE
  5
427
330
1F
100
AcDbEntity
  8
0
  6
Continuous
 62
     7
370
    30
100
AcDbLine
 10
8.100111743993017
 20
4.260526977147421
 30
0.0
 11
8.241111708482727
 21
4.260526977147421
 31
0.0
  0
LINE
  5
428
330
1F
100
AcDbEntity
  8
0
  6
Continuous
 62
     7
370
    30
100
AcDbLine
 10
8.241111708482727
 20
4.455483884988586
 30
0.0
 11
8.100111743993017
 21
4.455483884988586
 31
0.0
  0
LINE
  5
429
330
1F
100
AcDbEntity
  8
0
  6
Continuous
 62
     7
370
    30
100
AcDbLine
 10
8.265611725456441
 20
4.441338781727358
 30
0.0
 11
8.075611727019302
 21
4.441338781727358
 31
0.0
  0
LINE
  5
42A
330
1F
100
AcDbEntity
  8
0
  6
Continuous
 62
     7
370
    30
100
AcDbLine
 10
8.100111743993017
 20
4.427193678466132
 30
0.0
 11
8.241111708482727
 21
4.427193678466132
 31
0.0
  0
LINE
  5
42B
330
1F
100
AcDbEntity
  8
0
  6
Continuous
 62
     7
370
    30
100
AcDbLine
 10
8.241111708482727
 20
4.3999282201057
 30
0.0
 11
8.100111743993017
 21
4.3999282201057
 31
0.0
  0
LINE
  5
42C
330
1F
100
AcDbEntity
  8
0
  6
Continuous
 62
     7
370
    30
100
AcDbLine
 10
8.265611725456441
 20
4.385783263509446
 30
0.0
 11
8.075611727019302
 21
4.385783263509446
 31
0.0
  0
LINE
  5
42D
330
1F
100
AcDbEntity
  8
0
  6
Continuous
 62
     7
370
    30
100
AcDbLine
 10
8.241111708482727
 20
4.344372701887788
 30
0.0
 11
8.100111743993017
 21
4.344372701887788
 31
0.0
  0
LINE
  5
42E
330
1F
100
AcDbEntity
  8
0
  6
Continuous
 62
     7
370
    30
100
AcDbLine
 10
8.100111743993017
 20
4.371638160248219
 30
0.0
 11
8.241111708482727
 21
4.371638160248219
 31
0.0
  0
LINE
  5
42F
330
1F
100
AcDbEntity
  8
0
  6
Continuous
 62
     7
370
    30
100
AcDbLine
 10
8.265611725456441
 20
4.552449818163185
 30
0.0
 11
8.075611727019302
 21
4.552449818163185
 31
0.0
  0
LINE
  5
430
330
1F
100
AcDbEntity
  8
0
  6
Continuous
 62
     7
370
    30
100
AcDbLine
 10
8.241111708482727
 20
4.566594921424411
 30
0.0
 11
8.100111743993017
 21
4.566594921424411
 31
0.0
  0
LINE
  5
431
330
1F
100
AcDbEntity
  8
0
  6
Continuous
 62
     7
370
    30
100
AcDbLine
 10
8.265611725456441
 20
4.608005483046069
 30
0.0
 11
8.075611727019302
 21
4.608005483046069
 31
0.0
  0
LINE
  5
432
330
1F
100
AcDbEntity
  8
0
  6
Continuous
 62
     7
370
    30
100
AcDbLine
 10
8.100111743993017
 20
4.593860379784843
 30
0.0
 11
8.241111708482727
 21
4.593860379784843
 31
0.0
  0
LINE
  5
433
330
1F
100
AcDbEntity
  8
0
  6
Continuous
 62
     7
370
    30
100
AcDbLine
 10
8.241111708482727
 20
4.677706104525209
 30
0.0
 11
8.100111743993017
 21
4.677706104525209
 31
0.0
  0
LINE
  5
434
330
1F
100
AcDbEntity
  8
0
  6
Continuous
 62
     7
370
    30
100
AcDbLine
 10
8.265611725456441
 20
4.663561001263982
 30
0.0
 11
8.075611727019302
 21
4.663561001263982
 31
0.0
  0
LINE
  5
435
330
1F
100
AcDbEntity
  8
0
  6
Continuous
 62
     7
370
    30
100
AcDbLine
 10
8.100111743993017
 20
4.649415898002755
 30
0.0
 11
8.241111708482727
 21
4.649415898002755
 31
0.0
  0
LINE
  5
436
330
1F
100
AcDbEntity
  8
0
  6
Continuous
 62
     7
370
    30
100
AcDbLine
 10
8.241111708482727
 20
4.622150439642324
 30
0.0
 11
8.100111743993017
 21
4.622150439642324
 31
0.0
  0
LINE
  5
437
330
1F
100
AcDbEntity
  8
0
  6
Continuous
 62
     7
370
    30
100
AcDbLine
 10
8.241111708482727
 20
4.788817140961035
 30
0.0
 11
8.100111743993017
 21
4.788817140961035
 31
0.0
  0
LINE
  5
438
330
1F
100
AcDbEntity
  8
0
  6
Continuous
 62
     7
370
    30
100
AcDbLine
 10
8.265611725456441
 20
4.774672037699808
 30
0.0
 11
8.075611727019302
 21
4.774672037699808
 31
0.0
  0
LINE
  5
439
330
1F
100
AcDbEntity
  8
0
  6
Continuous
 62
     7
370
    30
100
AcDbLine
 10
8.241111708482727
 20
4.733261622743122
 30
0.0
 11
8.100111743993017
 21
4.733261622743122
 31
0.0
  0
LINE
  5
43A
330
1F
100
AcDbEntity
  8
0
  6
Continuous
 62
     7
370
    30
100
AcDbLine
 10
8.265611725456441
 20
4.719116519481895
 30
0.0
 11
8.075611727019302
 21
4.719116519481895
 31
0.0
  0
LINE
  5
43B
330
1F
100
AcDbEntity
  8
0
  6
Continuous
 62
     7
370
    30
100
AcDbLine
 10
8.100111743993017
 20
4.760526934438581
 30
0.0
 11
8.241111708482727
 21
4.760526934438581
 31
0.0
  0
LINE
  5
43C
330
1F
100
AcDbEntity
  8
0
  6
Continuous
 62
     7
370
    30
100
AcDbLine
 10
8.100111743993017
 20
4.704971416220668
 30
0.0
 11
8.241111708482727
 21
4.704971416220668
 31
0.0
  0
LINE
  5
43D
330
1F
100
AcDbEntity
  8
0
  6
Continuous
 62
     7
370
    30
100
AcDbLine
 10
8.241111708482727
 20
4.844372659178948
 30
0.0
 11
8.100111743993017
 21
4.844372659178948
 31
0.0
  0
LINE
  5
43E
330
1F
100
AcDbEntity
  8
0
  6
Continuous
 62
     7
370
    30
100
AcDbLine
 10
8.265611725456441
 20
4.830227702582693
 30
0.0
 11
8.075611727019302
 21
4.830227702582693
 31
0.0
  0
LINE
  5
43F
330
1F
100
AcDbEntity
  8
0
  6
Continuous
 62
     7
370
    30
100
AcDbLine
 10
8.265611725456441
 20
4.885783220800606
 30
0.0
 11
8.075611727019302
 21
4.885783220800606
 31
0.0
  0
LINE
  5
440
330
1F
100
AcDbEntity
  8
0
  6
Continuous
 62
     7
370
    30
100
AcDbLine
 10
8.100111743993017
 20
4.871638117539379
 30
0.0
 11
8.241111708482727
 21
4.871638117539379
 31
0.0
  0
LINE
  5
441
330
1F
100
AcDbEntity
  8
0
  6
Continuous
 62
     7
370
    30
100
AcDbLine
 10
8.241111708482727
 20
4.899928324061833
 30
0.0
 11
8.100111743993017
 21
4.899928324061833
 31
0.0
  0
LINE
  5
442
330
1F
100
AcDbEntity
  8
0
  6
Continuous
 62
     7
370
    30
100
AcDbLine
 10
8.100111743993017
 20
4.816082599321466
 30
0.0
 11
8.241111708482727
 21
4.816082599321466
 31
0.0
  0
LINE
  5
443
330
1F
100
AcDbEntity
  8
0
  6
Continuous
 62
     7
370
    30
100
AcDbLine
 10
8.241111708482727
 20
4.955483842279746
 30
0.0
 11
8.100111743993017
 21
4.955483842279746
 31
0.0
  0
LINE
  5
444
330
1F
100
AcDbEntity
  8
0
  6
Continuous
 62
     7
370
    30
100
AcDbLine
 10
8.265611725456441
 20
4.941338739018518
 30
0.0
 11
8.075611727019302
 21
4.941338739018518
 31
0.0
  0
LINE
  5
445
330
1F
100
AcDbEntity
  8
0
  6
Continuous
 62
     7
370
    30
100
AcDbLine
 10
8.100111743993017
 20
4.927193635757292
 30
0.0
 11
8.241111708482727
 21
4.927193635757292
 31
0.0
  0
LINE
  5
446
330
1F
100
AcDbEntity
  8
0
  6
Continuous
 62
     7
370
    30
100
AcDbLine
 10
8.241111708482727
 20
4.993358898077203
 30
0.0
 11
8.100111743993017
 21
4.993358898077203
 31
0.0
  0
CIRCLE
  5
447
330
1F
100
AcDbEntity
  8
0
  6
Continuous
 62
     7
370
    30
100
AcDbCircle
 10
7.497611709518065
 20
2.150560976913373
 30
0.0
 40
0.0546874999999991
  0
CIRCLE
  5
448
330
1F
100
AcDbEntity
  8
0
  6
Continuous
 62
     7
370
    30
100
AcDbCircle
 10
10.09361170951806
 20
2.150560976913373
 30
0.0
 40
0.0546875000000018
  0
LINE
  5
449
330
1F
100
AcDbEntity
  8
0
  6
Continuous
 62
     7
370
    30
100
AcDbLine
 10
8.17061168957163
 20
3.126560975986098
 30
0.0
 11
8.370611709154336
 21
3.126560975986098
 31
0.0
  0
LINE
  5
44A
330
1F
100
AcDbEntity
  8
0
  6
Continuous
 62
     7
370
    30
100
AcDbLine
 10
7.970611706655164
 20
3.126560975986098
 30
0.0
 11
8.17061168957163
 21
3.126560975986098
 31
0.0
  0
SPLINE
  5
44B
330
1F
100
AcDbEntity
  8
0
  6
Continuous
 62
     7
370
    30
100
AcDbSpline
210
0.0
220
0.0
230
1.0
 70
     8
 71
     3
 72
    13
 73
     9
 74
     0
 42
0.00000001
 43
0.00000001
 40
0.0
 40
0.0
 40
0.0
 40
0.0
 40
0.0633665145830755
 40
0.1266026693175386
 40
0.2338928048211938
 40
0.4228573379688509
 40
0.823293691172226
 40
1.0
 40
1.0
 40
1.0
 40
1.0
 10
8.17061168957163
 20
3.236560979423339
 30
0.0
 10
8.170694562985986
 20
3.237454347646279
 30
0.0
 10
8.170860139324565
 20
3.239239246223262
 30
0.0
 10
8.172302624892884
 20
3.242153716357705
 30
0.0
 10
8.175524166755729
 20
3.245662150059901
 30
0.0
 10
8.183334429398466
 20
3.24983184170137
 30
0.0
 10
8.19267985499216
 20
3.251385554790305
 30
0.0
 10
8.199691211090276
 20
3.251519855144846
 30
0.0
 10
8.201837908843679
 20
3.251560974475449
 30
0.0
  0
LINE
  5
44C
330
1F
100
AcDbEntity
  8
0
  6
Continuous
 62
     7
370
    30
100
AcDbLine
 10
8.201837908843679
 20
3.251560974475449
 30
0.0
 11
8.293105027851466
 21
3.251560974475449
 31
0.0
  0
SPLINE
  5
44D
330
1F
100
AcDbEntity
  8
0
  6
Continuous
 62
     7
370
    30
100
AcDbSpline
210
0.0
220
0.0
230
1.0
 70
     8
 71
     3
 72
    14
 73
    10
 74
     0
 42
0.00000001
 43
0.00000001
 40
0.0
 40
0.0
 40
0.0
 40
0.0
 40
0.1232271354547648
 40
0.526776927438563
 40
0.6663309940624834
 40
0.806601062348812
 40
0.8858247044005553
 40
0.9657623665885366
 40
1.0
 40
1.0
 40
1.0
 40
1.0
 10
8.293105027851466
 20
3.251560974475449
 30
0.0
 10
8.294602735957174
 20
3.251540513812265
 30
0.0
 10
8.301005206250865
 20
3.251453047644639
 30
0.0
 10
8.30917826435795
 20
3.250374558713153
 30
0.0
 10
8.317003324781108
 20
3.24706323200774
 30
0.0
 10
8.320778582088778
 20
3.244369345619051
 30
0.0
 10
8.323222864213836
 20
3.241210208363024
 30
0.0
 10
8.324224887409667
 20
3.238648348050273
 30
0.0
 10
8.32430668261087
 20
3.237042518075798
 30
0.0
 10
8.324331210457272
 20
3.236560979423339
 30
0.0
  0
LINE
  5
44E
330
1F
100
AcDbEntity
  8
0
  6
Continuous
 62
     7
370
    30
100
AcDbLine
 10
8.324331210457272
 20
3.236560979423339
 30
0.0
 11
8.324331210457272
 21
3.126560975986098
 31
0.0
  0
LINE
  5
44F
330
1F
100
AcDbEntity
  8
0
  6
Continuous
 62
     7
370
    30
100
AcDbLine
 10
8.17061168957163
 20
3.236560979423339
 30
0.0
 11
8.17061168957163
 21
3.126560975986098
 31
0.0
  0
SPLINE
  5
450
330
1F
100
AcDbEntity
  8
0
  6
Continuous
 62
     7
370
    30
100
AcDbSpline
210
0.0
220
0.0
230
1.0
 70
     8
 71
     3
 72
    14
 73
    10
 74
     0
 42
0.00000001
 43
0.00000001
 40
0.0
 40
0.0
 40
0.0
 40
0.0
 40
0.1232280322691724
 40
0.5267775305456163
 40
0.6663314956007675
 40
0.8066014617972141
 40
0.8858239087525117
 40
0.9657624635120681
 40
1.0
 40
1.0
 40
1.0
 40
1.0
 10
8.139385543632065
 20
3.251560974475449
 30
0.0
 10
8.140883236214432
 20
3.251540513882859
 30
0.0
 10
8.147285600883635
 20
3.251453048553423
 30
0.0
 10
8.155458750194002
 20
3.250374568080982
 30
0.0
 10
8.163283805000109
 20
3.247063221259464
 30
0.0
 10
8.167059041667782
 20
3.244369388175527
 30
0.0
 10
8.169503348913544
 20
3.241210155882385
 30
0.0
 10
8.170505428616039
 20
3.238648370180374
 30
0.0
 10
8.170587176234143
 20
3.237042519550745
 30
0.0
 10
8.17061168957163
 20
3.236560979423339
 30
0.0
  0
LINE
  5
451
330
1F
100
AcDbEntity
  8
0
  6
Continuous
 62
     7
370
    30
100
AcDbLine
 10
8.139385543632065
 20
3.251560974475449
 30
0.0
 11
8.201837908843679
 21
3.251560974475449
 31
0.0
  0
SPLINE
  5
452
330
1F
100
AcDbEntity
  8
0
  6
Continuous
 62
     7
370
    30
100
AcDbSpline
210
0.0
220
0.0
230
1.0
 70
     8
 71
     3
 72
    13
 73
     9
 74
     0
 42
0.00000001
 43
0.00000001
 40
0.0
 40
0.0
 40
0.0
 40
0.0
 40
0.0633662730245222
 40
0.126602448852299
 40
0.2338913819325076
 40
0.422858873940483
 40
0.8232946189559616
 40
1.0
 40
1.0
 40
1.0
 40
1.0
 10
8.016892205352228
 20
3.236560979423339
 30
0.0
 10
8.016975048816397
 20
3.237454348950539
 30
0.0
 10
8.01714056565895
 20
3.23923925382935
 30
0.0
 10
8.018583061569736
 20
3.24215369250947
 30
0.0
 10
8.021804669114372
 20
3.245662222088942
 30
0.0
 10
8.02961488256608
 20
3.249831754850379
 30
0.0
 10
8.038960284462261
 20
3.251385563496151
 30
0.0
 10
8.045971710894447
 20
3.251519857267046
 30
0.0
 10
8.048118424624278
 20
3.251560974475449
 30
0.0
  0
LINE
  5
453
330
1F
100
AcDbEntity
  8
0
  6
Continuous
 62
     7
370
    30
100
AcDbLine
 10
8.048118424624278
 20
3.251560974475449
 30
0.0
 11
8.139385543632065
 21
3.251560974475449
 31
0.0
  0
LINE
  5
454
330
1F
100
AcDbEntity
  8
0
  6
Continuous
 62
     7
370
    30
100
AcDbLine
 10
8.016892205352228
 20
3.236560979423339
 30
0.0
 11
8.016892205352228
 21
3.126560975986098
 31
0.0
  0
SPLINE
  5
455
330
1F
100
AcDbEntity
  8
0
  6
Continuous
 62
     7
370
    30
100
AcDbSpline
210
0.0
220
0.0
230
1.0
 70
    24
 71
     3
 72
    14
 73
    10
 74
     0
 42
0.00000001
 43
0.00000001
 40
0.0
 40
0.0
 40
0.0
 40
0.0
 40
0.1739893834731666
 40
0.531853510086276
 40
0.693069889785214
 40
0.8559966123052457
 40
0.9269748730100952
 40
0.9985150281966357
 40
1.0
 40
1.0
 40
1.0
 40
1.0
 10
8.016892205352228
 20
3.251560974475449
 30
0.0
 10
8.016892205352228
 20
3.251522159597013
 30
0.0
 10
8.016892205352228
 20
3.251403509660288
 30
0.0
 10
8.016892205352228
 20
3.250068344401062
 30
0.0
 10
8.016892205352228
 20
3.246636988031902
 30
0.0
 10
8.016892205352226
 20
3.243312866584556
 30
0.0
 10
8.016892205352232
 20
3.239642065145655
 30
0.0
 10
8.016892205352223
 20
3.237607149195908
 30
0.0
 10
8.016892205352228
 20
3.2365818293838
 30
0.0
 10
8.016892205352228
 20
3.236560979423339
 30
0.0
  0
LINE
  5
456
330
1F
100
AcDbEntity
  8
0
  6
Continuous
 62
     7
370
    30
100
AcDbLine
 10
8.016892205352228
 20
3.251560974475449
 30
0.0
 11
8.048118424624278
 21
3.251560974475449
 31
0.0
  0
SPLINE
  5
457
330
1F
100
AcDbEntity
  8
0
  6
Continuous
 62
     7
370
    30
100
AcDbSpline
210
0.0
220
0.0
230
1.0
 70
    24
 71
     3
 72
    13
 73
     9
 74
     0
 42
0.00000001
 43
0.00000001
 40
0.0
 40
0.0
 40
0.0
 40
0.0
 40
0.0408210947144428
 40
0.101218230119084
 40
0.1942304591433145
 40
0.3488925117858285
 40
0.657619986985196
 40
1.0
 40
1.0
 40
1.0
 40
1.0
 10
8.324331210457272
 20
3.236560979423339
 30
0.0
 10
8.324331210457272
 20
3.237135361046073
 30
0.0
 10
8.324331210457272
 20
3.238559573004935
 30
0.0
 10
8.324331210457272
 20
3.241122784392354
 30
0.0
 10
8.324331210457272
 20
3.244448621358331
 30
0.0
 10
8.324331210457272
 20
3.248469910821168
 30
0.0
 10
8.324331210457272
 20
3.251167707953939
 30
0.0
 10
8.324331210457272
 20
3.251425445244748
 30
0.0
 10
8.324331210457272
 20
3.251560974475449
 30
0.0
  0
LINE
  5
458
330
1F
100
AcDbEntity
  8
0
  6
Continuous
 62
     7
370
    30
100
AcDbLine
 10
8.293105027851466
 20
3.251560974475449
 30
0.0
 11
8.324331210457272
 21
3.251560974475449
 31
0.0
  0
LINE
  5
459
330
1F
100
AcDbEntity
  8
0
  6
Continuous
 62
     7
370
    30
100
AcDbLine
 10
8.17061168957163
 20
2.851560971976278
 30
0.0
 11
8.2626116934464
 21
2.851560971976278
 31
0.0
  0
LINE
  5
45A
330
1F
100
AcDbEntity
  8
0
  6
Continuous
 62
     7
370
    30
100
AcDbLine
 10
8.097011026479436
 20
2.851560971976278
 30
0.0
 11
8.17061168957163
 21
2.851560971976278
 31
0.0
  0
LINE
  5
45B
330
1F
100
AcDbEntity
  8
0
  6
Continuous
 62
     7
370
    30
100
AcDbLine
 10
9.4206117294645
 20
3.126560975986098
 30
0.0
 11
9.620611712380965
 21
3.126560975986098
 31
0.0
  0
LINE
  5
45C
330
1F
100
AcDbEntity
  8
0
  6
Continuous
 62
     7
370
    30
100
AcDbLine
 10
9.220611709881794
 20
3.126560975986098
 30
0.0
 11
9.4206117294645
 21
3.126560975986098
 31
0.0
  0
SPLINE
  5
45D
330
1F
100
AcDbEntity
  8
0
  6
Continuous
 62
     7
370
    30
100
AcDbSpline
210
0.0
220
0.0
230
1.0
 70
     8
 71
     3
 72
    13
 73
     9
 74
     0
 42
0.00000001
 43
0.00000001
 40
0.0
 40
0.0
 40
0.0
 40
0.0
 40
0.0633662781237115
 40
0.1266024590402084
 40
0.233892638965824
 40
0.4228585943285315
 40
0.82329437156774
 40
1.0
 40
1.0
 40
1.0
 40
1.0
 10
9.4206117294645
 20
3.236560979423339
 30
0.0
 10
9.420694572425182
 20
3.237454348522954
 30
0.0
 10
9.42086008826179
 20
3.239239252547474
 30
0.0
 10
9.422302601089847
 20
3.242153714538129
 30
0.0
 10
9.425524135043473
 20
3.245662167702347
 30
0.0
 10
9.433334476572535
 20
3.249831808014078
 30
0.0
 10
9.44267985877483
 20
3.251385557693659
 30
0.0
 10
9.449691189126277
 20
3.251519855878092
 30
0.0
 10
9.451837875404065
 20
3.251560974475449
 30
0.0
  0
LINE
  5
45E
330
1F
100
AcDbEntity
  8
0
  6
Continuous
 62
     7
370
    30
100
AcDbLine
 10
9.451837875404065
 20
3.251560974475449
 30
0.0
 11
9.543104994411852
 21
3.251560974475449
 31
0.0
  0
SPLINE
  5
45F
330
1F
100
AcDbEntity
  8
0
  6
Continuous
 62
     7
370
    30
100
AcDbSpline
210
0.0
220
0.0
230
1.0
 70
     8
 71
     3
 72
    14
 73
    10
 74
     0
 42
0.00000001
 43
0.00000001
 40
0.0
 40
0.0
 40
0.0
 40
0.0
 40
0.1232278225073993
 40
0.526777397344808
 40
0.6663313888759833
 40
0.8066013816842929
 40
0.8858249811065312
 40
0.9657623129844574
 40
1.0
 40
1.0
 40
1.0
 40
1.0
 10
9.543104994411852
 20
3.251560974475449
 30
0.0
 10
9.544602715198852
 20
3.251540514000775
 30
0.0
 10
9.551005209717308
 20
3.251453049048637
 30
0.0
 10
9.55917826347722
 20
3.250374557970992
 30
0.0
 10
9.56700333159461
 20
3.247063232843304
 30
0.0
 10
9.57077857448234
 20
3.244369342981542
 30
0.0
 10
9.573222886612076
 20
3.241210216642839
 30
0.0
 10
9.57422482548022
 20
3.238648339567193
 30
0.0
 10
9.574306670731211
 20
3.237042517596612
 30
0.0
 10
9.574331213683902
 20
3.236560979423339
 30
0.0
  0
LINE
  5
460
330
1F
100
AcDbEntity
  8
0
  6
Continuous
 62
     7
370
    30
100
AcDbLine
 10
9.574331213683902
 20
3.236560979423339
 30
0.0
 11
9.574331213683902
 21
3.126560975986098
 31
0.0
  0
LINE
  5
461
330
1F
100
AcDbEntity
  8
0
  6
Continuous
 62
     7
370
    30
100
AcDbLine
 10
9.4206117294645
 20
3.236560979423339
 30
0.0
 11
9.4206117294645
 21
3.126560975986098
 31
0.0
  0
SPLINE
  5
462
330
1F
100
AcDbEntity
  8
0
  6
Continuous
 62
     7
370
    30
100
AcDbSpline
210
0.0
220
0.0
230
1.0
 70
     8
 71
     3
 72
    14
 73
    10
 74
     0
 42
0.00000001
 43
0.00000001
 40
0.0
 40
0.0
 40
0.0
 40
0.0
 40
0.1232286773331029
 40
0.5267778210019957
 40
0.666330959492929
 40
0.8066020623044253
 40
0.885824439645269
 40
0.9657623495653724
 40
1.0
 40
1.0
 40
1.0
 40
1.0
 10
9.38938551019245
 20
3.251560974475449
 30
0.0
 10
9.39088321504702
 20
3.25154051367308
 30
0.0
 10
9.397285602193175
 20
3.25145304785651
 30
0.0
 10
9.405458764677483
 20
3.250374591842737
 30
0.0
 10
9.41328378278053
 20
3.24706319663852
 30
0.0
 10
9.417059056497989
 20
3.244369401536352
 30
0.0
 10
9.419503425712387
 20
3.241210171327555
 30
0.0
 10
9.420505338329757
 20
3.23864835331888
 30
0.0
 10
9.420587185945354
 20
3.237042518616392
 30
0.0
 10
9.4206117294645
 20
3.236560979423339
 30
0.0
  0
LINE
  5
463
330
1F
100
AcDbEntity
  8
0
  6
Continuous
 62
     7
370
    30
100
AcDbLine
 10
9.38938551019245
 20
3.251560974475449
 30
0.0
 11
9.451837875404065
 21
3.251560974475449
 31
0.0
  0
SPLINE
  5
464
330
1F
100
AcDbEntity
  8
0
  6
Continuous
 62
     7
370
    30
100
AcDbSpline
210
0.0
220
0.0
230
1.0
 70
     8
 71
     3
 72
    13
 73
     9
 74
     0
 42
0.00000001
 43
0.00000001
 40
0.0
 40
0.0
 40
0.0
 40
0.0
 40
0.0633663279178951
 40
0.1266029121738518
 40
0.2338914020545386
 40
0.4228583857782779
 40
0.8232952194457488
 40
1.0
 40
1.0
 40
1.0
 40
1.0
 10
9.266892208578858
 20
3.236560979423339
 30
0.0
 10
9.266975048737622
 20
3.237454350429435
 30
0.0
 10
9.26714055943848
 20
3.239239263248907
 30
0.0
 10
9.268583118326962
 20
3.242153671324703
 30
0.0
 10
9.271804646860673
 20
3.245662233915196
 30
0.0
 10
9.2796148704345
 20
3.249831761096494
 30
0.0
 10
9.288960276225852
 20
3.25138556067304
 30
0.0
 10
9.29597169033778
 20
3.251519856738898
 30
0.0
 10
9.298118391184664
 20
3.251560974475449
 30
0.0
  0
LINE
  5
465
330
1F
100
AcDbEntity
  8
0
  6
Continuous
 62
     7
370
    30
100
AcDbLine
 10
9.298118391184664
 20
3.251560974475449
 30
0.0
 11
9.38938551019245
 21
3.251560974475449
 31
0.0
  0
LINE
  5
466
330
1F
100
AcDbEntity
  8
0
  6
Continuous
 62
     7
370
    30
100
AcDbLine
 10
9.266892208578858
 20
3.236560979423339
 30
0.0
 11
9.266892208578858
 21
3.126560975986098
 31
0.0
  0
SPLINE
  5
467
330
1F
100
AcDbEntity
  8
0
  6
Continuous
 62
     7
370
    30
100
AcDbSpline
210
0.0
220
0.0
230
1.0
 70
    24
 71
     3
 72
    14
 73
    10
 74
     0
 42
0.00000001
 43
0.00000001
 40
0.0
 40
0.0
 40
0.0
 40
0.0
 40
0.1739893834731666
 40
0.531853510086276
 40
0.693069889785214
 40
0.8559966123052457
 40
0.9269748730100952
 40
0.9985150281966357
 40
1.0
 40
1.0
 40
1.0
 40
1.0
 10
9.266892208578858
 20
3.251560974475449
 30
0.0
 10
9.266892208578858
 20
3.251522159597013
 30
0.0
 10
9.266892208578858
 20
3.251403509660288
 30
0.0
 10
9.266892208578858
 20
3.250068344401062
 30
0.0
 10
9.266892208578858
 20
3.246636988031902
 30
0.0
 10
9.266892208578858
 20
3.243312866584556
 30
0.0
 10
9.266892208578858
 20
3.239642065145655
 30
0.0
 10
9.266892208578858
 20
3.237607149195908
 30
0.0
 10
9.266892208578858
 20
3.2365818293838
 30
0.0
 10
9.266892208578858
 20
3.236560979423339
 30
0.0
  0
LINE
  5
468
330
1F
100
AcDbEntity
  8
0
  6
Continuous
 62
     7
370
    30
100
AcDbLine
 10
9.266892208578858
 20
3.251560974475449
 30
0.0
 11
9.298118391184664
 21
3.251560974475449
 31
0.0
  0
SPLINE
  5
469
330
1F
100
AcDbEntity
  8
0
  6
Continuous
 62
     7
370
    30
100
AcDbSpline
210
0.0
220
0.0
230
1.0
 70
    24
 71
     3
 72
    13
 73
     9
 74
     0
 42
0.00000001
 43
0.00000001
 40
0.0
 40
0.0
 40
0.0
 40
0.0
 40
0.0408210947144428
 40
0.101218230119084
 40
0.1942304591433145
 40
0.3488925117858285
 40
0.657619986985196
 40
1.0
 40
1.0
 40
1.0
 40
1.0
 10
9.574331213683902
 20
3.236560979423339
 30
0.0
 10
9.574331213683902
 20
3.237135361046073
 30
0.0
 10
9.574331213683902
 20
3.238559573004935
 30
0.0
 10
9.574331213683902
 20
3.241122784392354
 30
0.0
 10
9.574331213683902
 20
3.244448621358331
 30
0.0
 10
9.574331213683902
 20
3.248469910821168
 30
0.0
 10
9.574331213683902
 20
3.251167707953939
 30
0.0
 10
9.574331213683902
 20
3.251425445244748
 30
0.0
 10
9.574331213683902
 20
3.251560974475449
 30
0.0
  0
LINE
  5
46A
330
1F
100
AcDbEntity
  8
0
  6
Continuous
 62
     7
370
    30
100
AcDbLine
 10
9.543104994411852
 20
3.251560974475449
 30
0.0
 11
9.574331213683902
 21
3.251560974475449
 31
0.0
  0
LINE
  5
46B
330
1F
100
AcDbEntity
  8
0
  6
Continuous
 62
     7
370
    30
100
AcDbLine
 10
9.4206117294645
 20
2.851560971976278
 30
0.0
 11
9.512611733339272
 21
2.851560971976278
 31
0.0
  0
LINE
  5
46C
330
1F
100
AcDbEntity
  8
0
  6
Continuous
 62
     7
370
    30
100
AcDbLine
 10
9.347010993039822
 20
2.851560971976278
 30
0.0
 11
9.4206117294645
 21
2.851560971976278
 31
0.0
  0
LINE
  5
46D
330
1F
100
AcDbEntity
  8
0
  6
Continuous
 62
     7
370
    30
100
AcDbLine
 10
7.939348527810075
 20
2.900168438792007
 30
0.0
 11
7.936242750354947
 21
2.888577322693569
 31
0.0
  0
LINE
  5
46E
330
1F
100
AcDbEntity
  8
0
  6
Continuous
 62
     7
370
    30
100
AcDbLine
 10
7.984747056695728
 20
2.888003945150609
 30
0.0
 11
7.939348527810075
 21
2.900168438792007
 31
0.0
  0
ARC
  5
46F
330
1F
100
AcDbEntity
  8
0
  6
Continuous
 62
     7
370
    30
100
AcDbCircle
 10
7.988111709518066
 20
2.900560976913364
 30
0.0
 40
0.0130000000000003
100
AcDbArc
 50
254.999999999998
 51
90.00000000000783
  0
LINE
  5
470
330
1F
100
AcDbEntity
  8
0
  6
Continuous
 62
     7
370
    30
100
AcDbLine
 10
7.955611693269932
 20
2.913560976580267
 30
0.0
 11
7.988111697827106
 21
2.913560976580267
 31
0.0
  0
ARC
  5
471
330
1F
100
AcDbEntity
  8
0
  6
Continuous
 62
     7
370
    30
100
AcDbCircle
 10
7.955611709518065
 20
3.006560976913363
 30
0.0
 40
0.0930000000000003
100
AcDbArc
 50
112.1074099445022
 51
270.0000000000008
  0
ARC
  5
472
330
1F
100
AcDbEntity
  8
0
  6
Continuous
 62
     7
370
    30
100
AcDbCircle
 10
8.385611709518065
 20
3.006560976913363
 30
0.0
 40
0.0930000000000004
100
AcDbArc
 50
270.0000000000008
 51
67.892590055515
  0
LINE
  5
473
330
1F
100
AcDbEntity
  8
0
  6
Continuous
 62
     7
370
    30
100
AcDbLine
 10
8.353111717982394
 20
2.913560976580267
 30
0.0
 11
8.385611722539569
 21
2.913560976580267
 31
0.0
  0
ARC
  5
474
330
1F
100
AcDbEntity
  8
0
  6
Continuous
 62
     7
370
    30
100
AcDbCircle
 10
8.353111709518066
 20
2.900560976913364
 30
0.0
 40
0.0130000000000003
100
AcDbArc
 50
90.0
 51
284.9999999999998
  0
LINE
  5
475
330
1F
100
AcDbEntity
  8
0
  6
Continuous
 62
     7
370
    30
100
AcDbLine
 10
8.401874887999426
 20
2.900168438792007
 30
0.0
 11
8.356476359113772
 21
2.888003945150609
 31
0.0
  0
LINE
  5
476
330
1F
100
AcDbEntity
  8
0
  6
Continuous
 62
     7
370
    30
100
AcDbLine
 10
8.404980702120795
 20
2.888577322693569
 30
0.0
 11
8.359582173235143
 21
2.876412829052171
 31
0.0
  0
ARC
  5
477
330
1F
100
AcDbEntity
  8
0
  6
Continuous
 62
     7
370
    30
100
AcDbCircle
 10
8.353111709518066
 20
2.900560976913364
 30
0.0
 40
0.0249999999999999
100
AcDbArc
 50
90.0
 51
284.9999999999997
  0
LINE
  5
478
330
1F
100
AcDbEntity
  8
0
  6
Continuous
 62
     7
370
    30
100
AcDbLine
 10
8.353111717982394
 20
2.92556097628858
 30
0.0
 11
8.385611722539569
 21
2.92556097628858
 31
0.0
  0
ARC
  5
479
330
1F
100
AcDbEntity
  8
0
  6
Continuous
 62
     7
370
    30
100
AcDbCircle
 10
7.955611709518065
 20
3.006560976913363
 30
0.0
 40
0.0810000000000006
100
AcDbArc
 50
115.6008269834329
 51
270.0000000000008
  0
LINE
  5
47A
330
1F
100
AcDbEntity
  8
0
  6
Continuous
 62
     7
370
    30
100
AcDbLine
 10
7.955611693269932
 20
2.92556097628858
 30
0.0
 11
7.988111697827106
 21
2.92556097628858
 31
0.0
  0
ARC
  5
47B
330
1F
100
AcDbEntity
  8
0
  6
Continuous
 62
     7
370
    30
100
AcDbCircle
 10
7.988111709518066
 20
2.900560976913364
 30
0.0
 40
0.0249999999999999
100
AcDbArc
 50
255.0
 51
90.00000000000406
  0
LINE
  5
47C
330
1F
100
AcDbEntity
  8
0
  6
Continuous
 62
     7
370
    30
100
AcDbLine
 10
7.981641205908114
 20
2.876412829052171
 30
0.0
 11
7.936242750354947
 21
2.888577322693569
 31
0.0
  0
LINE
  5
47D
330
1F
100
AcDbEntity
  8
0
  6
Continuous
 62
     7
370
    30
100
AcDbLine
 10
8.404980702120795
 20
2.888577322693569
 30
0.0
 11
8.401874887999426
 21
2.900168438792007
 31
0.0
  0
ARC
  5
47E
330
1F
100
AcDbEntity
  8
0
  6
Continuous
 62
     7
370
    30
100
AcDbCircle
 10
8.385611709518065
 20
3.006560976913363
 30
0.0
 40
0.0810000000000003
100
AcDbArc
 50
270.0000000000008
 51
64.39917301658724
  0
LINE
  5
47F
330
1F
100
AcDbEntity
  8
0
  6
Continuous
 62
     7
370
    30
100
AcDbLine
 10
9.189348531036703
 20
2.900168438792007
 30
0.0
 11
9.186242716915334
 21
2.888577322693569
 31
0.0
  0
LINE
  5
480
330
1F
100
AcDbEntity
  8
0
  6
Continuous
 62
     7
370
    30
100
AcDbLine
 10
9.234747059922357
 20
2.888003945150609
 30
0.0
 11
9.189348531036703
 21
2.900168438792007
 31
0.0
  0
ARC
  5
481
330
1F
100
AcDbEntity
  8
0
  6
Continuous
 62
     7
370
    30
100
AcDbCircle
 10
9.238111709518066
 20
2.900560976913364
 30
0.0
 40
0.0130000000000003
100
AcDbArc
 50
254.9999999999943
 51
90.00000000000783
  0
LINE
  5
482
330
1F
100
AcDbEntity
  8
0
  6
Continuous
 62
     7
370
    30
100
AcDbLine
 10
9.205611696496561
 20
2.913560976580267
 30
0.0
 11
9.238111701053736
 21
2.913560976580267
 31
0.0
  0
ARC
  5
483
330
1F
100
AcDbEntity
  8
0
  6
Continuous
 62
     7
370
    30
100
AcDbCircle
 10
9.205611709518065
 20
3.006560976913363
 30
0.0
 40
0.0929999999999999
100
AcDbArc
 50
112.1074099445017
 51
270.0000000000008
  0
ARC
  5
484
330
1F
100
AcDbEntity
  8
0
  6
Continuous
 62
     7
370
    30
100
AcDbCircle
 10
9.635611709518065
 20
3.006560976913363
 30
0.0
 40
0.0930000000000004
100
AcDbArc
 50
270.0000000000008
 51
67.892590055515
  0
LINE
  5
485
330
1F
100
AcDbEntity
  8
0
  6
Continuous
 62
     7
370
    30
100
AcDbLine
 10
9.603111721209023
 20
2.913560976580267
 30
0.0
 11
9.635611725766196
 21
2.913560976580267
 31
0.0
  0
ARC
  5
486
330
1F
100
AcDbEntity
  8
0
  6
Continuous
 62
     7
370
    30
100
AcDbCircle
 10
9.603111709518066
 20
2.900560976913364
 30
0.0
 40
0.0130000000000003
100
AcDbArc
 50
90.0
 51
284.9999999999998
  0
LINE
  5
487
330
1F
100
AcDbEntity
  8
0
  6
Continuous
 62
     7
370
    30
100
AcDbLine
 10
9.651874891226056
 20
2.900168438792007
 30
0.0
 11
9.606476362340402
 21
2.888003945150609
 31
0.0
  0
LINE
  5
488
330
1F
100
AcDbEntity
  8
0
  6
Continuous
 62
     7
370
    30
100
AcDbLine
 10
9.654980668681182
 20
2.888577322693569
 30
0.0
 11
9.651874891226056
 21
2.900168438792007
 31
0.0
  0
LINE
  5
489
330
1F
100
AcDbEntity
  8
0
  6
Continuous
 62
     7
370
    30
100
AcDbLine
 10
9.654980668681182
 20
2.888577322693569
 30
0.0
 11
9.609582213128014
 21
2.876412829052171
 31
0.0
  0
ARC
  5
48A
330
1F
100
AcDbEntity
  8
0
  6
Continuous
 62
     7
370
    30
100
AcDbCircle
 10
9.603111709518066
 20
2.900560976913364
 30
0.0
 40
0.0249999999999999
100
AcDbArc
 50
90.0
 51
284.9999999999997
  0
LINE
  5
48B
330
1F
100
AcDbEntity
  8
0
  6
Continuous
 62
     7
370
    30
100
AcDbLine
 10
9.603111721209023
 20
2.92556097628858
 30
0.0
 11
9.635611725766196
 21
2.92556097628858
 31
0.0
  0
ARC
  5
48C
330
1F
100
AcDbEntity
  8
0
  6
Continuous
 62
     7
370
    30
100
AcDbCircle
 10
9.635611709518065
 20
3.006560976913363
 30
0.0
 40
0.0810000000000003
100
AcDbArc
 50
270.0000000000008
 51
64.39917301658724
  0
ARC
  5
48D
330
1F
100
AcDbEntity
  8
0
  6
Continuous
 62
     7
370
    30
100
AcDbCircle
 10
9.205611709518065
 20
3.006560976913363
 30
0.0
 40
0.0810000000000002
100
AcDbArc
 50
115.6008269834323
 51
270.0000000000008
  0
LINE
  5
48E
330
1F
100
AcDbEntity
  8
0
  6
Continuous
 62
     7
370
    30
100
AcDbLine
 10
9.205611696496561
 20
2.92556097628858
 30
0.0
 11
9.238111701053736
 21
2.92556097628858
 31
0.0
  0
ARC
  5
48F
330
1F
100
AcDbEntity
  8
0
  6
Continuous
 62
     7
370
    30
100
AcDbCircle
 10
9.238111709518066
 20
2.900560976913364
 30
0.0
 40
0.0249999999999999
100
AcDbArc
 50
255.000000000002
 51
90.00000000000406
  0
LINE
  5
490
330
1F
100
AcDbEntity
  8
0
  6
Continuous
 62
     7
370
    30
100
AcDbLine
 10
9.231641245800986
 20
2.876412829052171
 30
0.0
 11
9.186242716915334
 21
2.888577322693569
 31
0.0
  0
LINE
  5
491
330
1F
100
AcDbEntity
  8
0
  6
Continuous
 62
     7
370
    30
100
AcDbLine
 10
9.957611739327895
 20
3.650560996859809
 30
0.0
 11
9.957611739327895
 21
3.083903253355083
 31
0.0
  0
LINE
  5
492
330
1F
100
AcDbEntity
  8
0
  6
Continuous
 62
     7
370
    30
100
AcDbLine
 10
9.957611739327895
 20
3.035862003852531
 30
0.0
 11
9.957611739327895
 21
3.025560976913373
 31
0.0
  0
LINE
  5
493
330
1F
100
AcDbEntity
  8
0
  6
Continuous
 62
     7
370
    30
100
AcDbLine
 10
9.957611739327895
 20
3.650560996859809
 30
0.0
 11
10.02061167821389
 21
3.650560996859809
 31
0.0
  0
LINE
  5
494
330
1F
100
AcDbEntity
  8
0
  6
Continuous
 62
     7
370
    30
100
AcDbLine
 10
9.170611714152678
 20
3.10156097812154
 30
0.0
 11
9.170611714152678
 21
3.038560977361259
 31
0.0
  0
LINE
  5
495
330
1F
100
AcDbEntity
  8
0
  6
Continuous
 62
     7
370
    30
100
AcDbLine
 10
9.670611708110082
 20
3.10156097812154
 30
0.0
 11
9.670611708110082
 21
3.038560977361259
 31
0.0
  0
LINE
  5
496
330
1F
100
AcDbEntity
  8
0
  6
Continuous
 62
     7
370
    30
100
AcDbLine
 10
9.670611708110082
 20
3.038560977361259
 30
0.0
 11
9.608611731005775
 21
3.038560977361259
 31
0.0
  0
LINE
  5
497
330
1F
100
AcDbEntity
  8
0
  6
Continuous
 62
     7
370
    30
100
AcDbLine
 10
9.494181519580009
 20
3.038560977361259
 30
0.0
 11
9.329730962660207
 21
3.038560977361259
 31
0.0
  0
LINE
  5
498
330
1F
100
AcDbEntity
  8
0
  6
Continuous
 62
     7
370
    30
100
AcDbLine
 10
9.232611691256984
 20
3.038560977361259
 30
0.0
 11
9.170611714152678
 21
3.038560977361259
 31
0.0
  0
LINE
  5
499
330
1F
100
AcDbEntity
  8
0
  6
Continuous
 62
     7
370
    30
100
AcDbLine
 10
9.670611708110082
 20
3.10156097812154
 30
0.0
 11
9.170611714152678
 21
3.10156097812154
 31
0.0
  0
LINE
  5
49A
330
1F
100
AcDbEntity
  8
0
  6
Continuous
 62
     7
370
    30
100
AcDbLine
 10
8.883611710434545
 20
3.650560996859809
 30
0.0
 11
8.820611709674264
 21
3.650560996859809
 31
0.0
  0
LINE
  5
49B
330
1F
100
AcDbEntity
  8
0
  6
Continuous
 62
     7
370
    30
100
AcDbLine
 10
8.883611710434545
 20
3.650560996859809
 30
0.0
 11
8.883611710434545
 21
3.083903253355083
 31
0.0
  0
LINE
  5
49C
330
1F
100
AcDbEntity
  8
0
  6
Continuous
 62
     7
370
    30
100
AcDbLine
 10
8.883611710434545
 20
3.035862003852531
 30
0.0
 11
8.883611710434545
 21
3.025560976913371
 31
0.0
  0
LINE
  5
49D
330
1F
100
AcDbEntity
  8
0
  6
Continuous
 62
     7
370
    30
100
AcDbLine
 10
9.942611725942664
 20
3.150560975402724
 30
0.0
 11
9.957611739327895
 21
3.150560975402724
 31
0.0
  0
LINE
  5
49E
330
1F
100
AcDbEntity
  8
0
  6
Continuous
 62
     7
370
    30
100
AcDbLine
 10
9.942611725942664
 20
3.650560996859809
 30
0.0
 11
9.942611725942664
 21
3.150560975402724
 31
0.0
  0
LINE
  5
49F
330
1F
100
AcDbEntity
  8
0
  6
Continuous
 62
     7
370
    30
100
AcDbLine
 10
9.957611739327895
 20
3.650560996859809
 30
0.0
 11
9.942611725942664
 21
3.650560996859809
 31
0.0
  0
LINE
  5
4A0
330
1F
100
AcDbEntity
  8
0
  6
Continuous
 62
     7
370
    30
100
AcDbLine
 10
9.170611714152678
 20
3.116560973173651
 30
0.0
 11
9.170611714152678
 21
3.10156097812154
 31
0.0
  0
LINE
  5
4A1
330
1F
100
AcDbEntity
  8
0
  6
Continuous
 62
     7
370
    30
100
AcDbLine
 10
9.670611708110082
 20
3.10156097812154
 30
0.0
 11
9.670611708110082
 21
3.116560973173651
 31
0.0
  0
LINE
  5
4A2
330
1F
100
AcDbEntity
  8
0
  6
Continuous
 62
     7
370
    30
100
AcDbLine
 10
8.898611705486655
 20
3.650560996859809
 30
0.0
 11
8.883611710434545
 21
3.650560996859809
 31
0.0
  0
LINE
  5
4A3
330
1F
100
AcDbEntity
  8
0
  6
Continuous
 62
     7
370
    30
100
AcDbLine
 10
8.898611705486655
 20
3.150560975402724
 30
0.0
 11
8.898611705486655
 21
3.650560996859809
 31
0.0
  0
LINE
  5
4A4
330
1F
100
AcDbEntity
  8
0
  6
Continuous
 62
     7
370
    30
100
AcDbLine
 10
8.883611710434545
 20
3.150560975402724
 30
0.0
 11
8.898611705486655
 21
3.150560975402724
 31
0.0
  0
LINE
  5
4A5
330
1F
100
AcDbEntity
  8
0
  6
Continuous
 62
     7
370
    30
100
AcDbLine
 10
9.889611698203506
 20
3.666560972026731
 30
0.0
 11
9.889611698203506
 21
3.744560997630446
 31
0.0
  0
LINE
  5
4A6
330
1F
100
AcDbEntity
  8
0
  6
Continuous
 62
     7
370
    30
100
AcDbLine
 10
8.95161170572613
 20
3.666560972026731
 30
0.0
 11
9.889611698203506
 21
3.666560972026731
 31
0.0
  0
LINE
  5
4A7
330
1F
100
AcDbEntity
  8
0
  6
Continuous
 62
     7
370
    30
100
AcDbLine
 10
8.95161170572613
 20
3.744560997630446
 30
0.0
 11
8.95161170572613
 21
3.666560972026731
 31
0.0
  0
LINE
  5
4A8
330
1F
100
AcDbEntity
  8
0
  6
Continuous
 62
     7
370
    30
100
AcDbLine
 10
8.95161170572613
 20
3.744560997630446
 30
0.0
 11
9.889611698203506
 21
3.744560997630446
 31
0.0
  0
LINE
  5
4A9
330
1F
100
AcDbEntity
  8
0
  6
Continuous
 62
     7
370
    30
100
AcDbLine
 10
9.170611714152678
 20
3.150560975402724
 30
0.0
 11
9.170611714152678
 21
3.116560973173651
 31
0.0
  0
LINE
  5
4AA
330
1F
100
AcDbEntity
  8
0
  6
Continuous
 62
     7
370
    30
100
AcDbLine
 10
9.170611714152678
 20
3.150560975402724
 30
0.0
 11
8.898611705486655
 21
3.150560975402724
 31
0.0
  0
LINE
  5
4AB
330
1F
100
AcDbEntity
  8
0
  6
Continuous
 62
     7
370
    30
100
AcDbLine
 10
8.95161170572613
 20
3.650560996859809
 30
0.0
 11
8.898611705486655
 21
3.650560996859809
 31
0.0
  0
LINE
  5
4AC
330
1F
100
AcDbEntity
  8
0
  6
Continuous
 62
     7
370
    30
100
AcDbLine
 10
8.95161170572613
 20
3.666560972026731
 30
0.0
 11
8.95161170572613
 21
3.650560996859809
 31
0.0
  0
LINE
  5
4AD
330
1F
100
AcDbEntity
  8
0
  6
Continuous
 62
     7
370
    30
100
AcDbLine
 10
9.889611698203506
 20
3.650560996859809
 30
0.0
 11
9.889611698203506
 21
3.666560972026731
 31
0.0
  0
LINE
  5
4AE
330
1F
100
AcDbEntity
  8
0
  6
Continuous
 62
     7
370
    30
100
AcDbLine
 10
9.889611698203506
 20
3.650560996859809
 30
0.0
 11
9.942611725942664
 21
3.650560996859809
 31
0.0
  0
LINE
  5
4AF
330
1F
100
AcDbEntity
  8
0
  6
Continuous
 62
     7
370
    30
100
AcDbLine
 10
9.670611708110082
 20
3.150560975402724
 30
0.0
 11
9.670611708110082
 21
3.116560973173651
 31
0.0
  0
LINE
  5
4B0
330
1F
100
AcDbEntity
  8
0
  6
Continuous
 62
     7
370
    30
100
AcDbLine
 10
9.942611725942664
 20
3.150560975402724
 30
0.0
 11
9.670611708110082
 21
3.150560975402724
 31
0.0
  0
LINE
  5
4B1
330
1F
100
AcDbEntity
  8
0
  6
Continuous
 62
     7
370
    30
100
AcDbLine
 10
8.707611708601585
 20
3.650560996859809
 30
0.0
 11
8.707611708601585
 21
3.083903253355083
 31
0.0
  0
LINE
  5
4B2
330
1F
100
AcDbEntity
  8
0
  6
Continuous
 62
     7
370
    30
100
AcDbLine
 10
8.707611708601585
 20
3.035862003852531
 30
0.0
 11
8.707611708601585
 21
3.025560976913373
 31
0.0
  0
LINE
  5
4B3
330
1F
100
AcDbEntity
  8
0
  6
Continuous
 62
     7
370
    30
100
AcDbLine
 10
8.707611708601585
 20
3.650560996859809
 30
0.0
 11
8.770611709361866
 21
3.650560996859809
 31
0.0
  0
LINE
  5
4B4
330
1F
100
AcDbEntity
  8
0
  6
Continuous
 62
     7
370
    30
100
AcDbLine
 10
7.920611710926049
 20
3.10156097812154
 30
0.0
 11
7.920611710926049
 21
3.038560977361259
 31
0.0
  0
LINE
  5
4B5
330
1F
100
AcDbEntity
  8
0
  6
Continuous
 62
     7
370
    30
100
AcDbLine
 10
8.420611704883452
 20
3.10156097812154
 30
0.0
 11
7.920611710926049
 21
3.10156097812154
 31
0.0
  0
LINE
  5
4B6
330
1F
100
AcDbEntity
  8
0
  6
Continuous
 62
     7
370
    30
100
AcDbLine
 10
8.420611704883452
 20
3.10156097812154
 30
0.0
 11
8.420611704883452
 21
3.038560977361259
 31
0.0
  0
LINE
  5
4B7
330
1F
100
AcDbEntity
  8
0
  6
Continuous
 62
     7
370
    30
100
AcDbLine
 10
8.420611704883452
 20
3.038560977361259
 30
0.0
 11
8.358611727779145
 21
3.038560977361259
 31
0.0
  0
LINE
  5
4B8
330
1F
100
AcDbEntity
  8
0
  6
Continuous
 62
     7
370
    30
100
AcDbLine
 10
8.244181516353379
 20
3.038560977361259
 30
0.0
 11
8.079730959433578
 21
3.038560977361259
 31
0.0
  0
LINE
  5
4B9
330
1F
100
AcDbEntity
  8
0
  6
Continuous
 62
     7
370
    30
100
AcDbLine
 10
7.982611688030356
 20
3.038560977361259
 30
0.0
 11
7.920611710926049
 21
3.038560977361259
 31
0.0
  0
LINE
  5
4BA
330
1F
100
AcDbEntity
  8
0
  6
Continuous
 62
     7
370
    30
100
AcDbLine
 10
7.633611679708233
 20
3.650560996859809
 30
0.0
 11
7.633611679708233
 21
3.083903253355083
 31
0.0
  0
LINE
  5
4BB
330
1F
100
AcDbEntity
  8
0
  6
Continuous
 62
     7
370
    30
100
AcDbLine
 10
7.633611679708233
 20
3.035862003852531
 30
0.0
 11
7.633611679708233
 21
3.025560976913371
 31
0.0
  0
LINE
  5
4BC
330
1F
100
AcDbEntity
  8
0
  6
Continuous
 62
     7
370
    30
100
AcDbLine
 10
7.633611679708233
 20
3.650560996859809
 30
0.0
 11
7.570611740822237
 21
3.650560996859809
 31
0.0
  0
LINE
  5
4BD
330
1F
100
AcDbEntity
  8
0
  6
Continuous
 62
     7
370
    30
100
AcDbLine
 10
8.692611713549475
 20
3.150560975402724
 30
0.0
 11
8.707611708601585
 21
3.150560975402724
 31
0.0
  0
LINE
  5
4BE
330
1F
100
AcDbEntity
  8
0
  6
Continuous
 62
     7
370
    30
100
AcDbLine
 10
8.692611713549475
 20
3.650560996859809
 30
0.0
 11
8.692611713549475
 21
3.150560975402724
 31
0.0
  0
LINE
  5
4BF
330
1F
100
AcDbEntity
  8
0
  6
Continuous
 62
     7
370
    30
100
AcDbLine
 10
8.707611708601585
 20
3.650560996859809
 30
0.0
 11
8.692611713549475
 21
3.650560996859809
 31
0.0
  0
LINE
  5
4C0
330
1F
100
AcDbEntity
  8
0
  6
Continuous
 62
     7
370
    30
100
AcDbLine
 10
7.920611710926049
 20
3.116560973173651
 30
0.0
 11
7.920611710926049
 21
3.10156097812154
 31
0.0
  0
LINE
  5
4C1
330
1F
100
AcDbEntity
  8
0
  6
Continuous
 62
     7
370
    30
100
AcDbLine
 10
8.420611704883452
 20
3.10156097812154
 30
0.0
 11
8.420611704883452
 21
3.116560973173651
 31
0.0
  0
LINE
  5
4C2
330
1F
100
AcDbEntity
  8
0
  6
Continuous
 62
     7
370
    30
100
AcDbLine
 10
7.648611693093465
 20
3.650560996859809
 30
0.0
 11
7.633611679708233
 21
3.650560996859809
 31
0.0
  0
LINE
  5
4C3
330
1F
100
AcDbEntity
  8
0
  6
Continuous
 62
     7
370
    30
100
AcDbLine
 10
7.648611693093465
 20
3.150560975402724
 30
0.0
 11
7.648611693093465
 21
3.650560996859809
 31
0.0
  0
LINE
  5
4C4
330
1F
100
AcDbEntity
  8
0
  6
Continuous
 62
     7
370
    30
100
AcDbLine
 10
7.633611679708233
 20
3.150560975402724
 30
0.0
 11
7.648611693093465
 21
3.150560975402724
 31
0.0
  0
LINE
  5
4C5
330
1F
100
AcDbEntity
  8
0
  6
Continuous
 62
     7
370
    30
100
AcDbLine
 10
8.63961171331
 20
3.666560972026731
 30
0.0
 11
8.63961171331
 21
3.744560997630446
 31
0.0
  0
LINE
  5
4C6
330
1F
100
AcDbEntity
  8
0
  6
Continuous
 62
     7
370
    30
100
AcDbLine
 10
7.701611720832622
 20
3.666560972026731
 30
0.0
 11
8.63961171331
 21
3.666560972026731
 31
0.0
  0
LINE
  5
4C7
330
1F
100
AcDbEntity
  8
0
  6
Continuous
 62
     7
370
    30
100
AcDbLine
 10
7.701611720832622
 20
3.744560997630446
 30
0.0
 11
7.701611720832622
 21
3.666560972026731
 31
0.0
  0
LINE
  5
4C8
330
1F
100
AcDbEntity
  8
0
  6
Continuous
 62
     7
370
    30
100
AcDbLine
 10
7.701611720832622
 20
3.744560997630446
 30
0.0
 11
8.63961171331
 21
3.744560997630446
 31
0.0
  0
LINE
  5
4C9
330
1F
100
AcDbEntity
  8
0
  6
Continuous
 62
     7
370
    30
100
AcDbLine
 10
7.920611710926049
 20
3.150560975402724
 30
0.0
 11
7.920611710926049
 21
3.116560973173651
 31
0.0
  0
LINE
  5
4CA
330
1F
100
AcDbEntity
  8
0
  6
Continuous
 62
     7
370
    30
100
AcDbLine
 10
7.920611710926049
 20
3.150560975402724
 30
0.0
 11
7.648611693093465
 21
3.150560975402724
 31
0.0
  0
LINE
  5
4CB
330
1F
100
AcDbEntity
  8
0
  6
Continuous
 62
     7
370
    30
100
AcDbLine
 10
7.701611720832622
 20
3.650560996859809
 30
0.0
 11
7.648611693093465
 21
3.650560996859809
 31
0.0
  0
LINE
  5
4CC
330
1F
100
AcDbEntity
  8
0
  6
Continuous
 62
     7
370
    30
100
AcDbLine
 10
7.701611720832622
 20
3.666560972026731
 30
0.0
 11
7.701611720832622
 21
3.650560996859809
 31
0.0
  0
LINE
  5
4CD
330
1F
100
AcDbEntity
  8
0
  6
Continuous
 62
     7
370
    30
100
AcDbLine
 10
8.63961171331
 20
3.650560996859809
 30
0.0
 11
8.63961171331
 21
3.666560972026731
 31
0.0
  0
LINE
  5
4CE
330
1F
100
AcDbEntity
  8
0
  6
Continuous
 62
     7
370
    30
100
AcDbLine
 10
8.63961171331
 20
3.650560996859809
 30
0.0
 11
8.692611713549475
 21
3.650560996859809
 31
0.0
  0
LINE
  5
4CF
330
1F
100
AcDbEntity
  8
0
  6
Continuous
 62
     7
370
    30
100
AcDbLine
 10
8.692611713549475
 20
3.150560975402724
 30
0.0
 11
8.420611704883452
 21
3.150560975402724
 31
0.0
  0
LINE
  5
4D0
330
1F
100
AcDbEntity
  8
0
  6
Continuous
 62
     7
370
    30
100
AcDbLine
 10
8.420611704883452
 20
3.150560975402724
 30
0.0
 11
8.420611704883452
 21
3.116560973173651
 31
0.0
  0
LINE
  5
4D1
330
1F
100
AcDbEntity
  8
0
  6
Continuous
 62
     8
370
    30
100
AcDbLine
 10
7.151111640256529
 20
4.259060914083507
 30
0.0
 11
7.433193848285457
 21
4.259060914083507
 31
0.0
  0
LINE
  5
4D2
330
1F
100
AcDbEntity
  8
0
  6
Continuous
 62
     8
370
    30
100
AcDbLine
 10
7.473414076991276
 20
4.259060914083507
 30
0.0
 11
8.100111743993017
 21
4.259060914083507
 31
0.0
  0
LINE
  5
4D3
330
1F
100
AcDbEntity
  8
0
  6
Continuous
 62
     8
370
    30
100
AcDbLine
 10
8.241111708482727
 20
4.259060914083507
 30
0.0
 11
8.630611708945485
 21
4.259060914083507
 31
0.0
  0
LINE
  5
4D4
330
1F
100
AcDbEntity
  8
0
  6
Continuous
 62
     8
370
    30
100
AcDbLine
 10
8.670611711028714
 20
4.259060914083507
 30
0.0
 11
8.920611708007415
 21
4.259060914083507
 31
0.0
  0
LINE
  5
4D5
330
1F
100
AcDbEntity
  8
0
  6
Continuous
 62
     8
370
    30
100
AcDbLine
 10
8.960611710090644
 20
4.259060914083507
 30
0.0
 11
9.350111710553403
 21
4.259060914083507
 31
0.0
  0
LINE
  5
4D6
330
1F
100
AcDbEntity
  8
0
  6
Continuous
 62
     8
370
    30
100
AcDbLine
 10
9.491111675043113
 20
4.259060914083507
 30
0.0
 11
10.11780934204485
 21
4.259060914083507
 31
0.0
  0
LINE
  5
4D7
330
1F
100
AcDbEntity
  8
0
  6
Continuous
 62
     8
370
    30
100
AcDbLine
 10
10.15802957075067
 20
4.259060914083507
 30
0.0
 11
10.4401117787796
 21
4.259060914083507
 31
0.0
  0
LINE
  5
4D8
330
1F
100
AcDbEntity
  8
0
  6
Continuous
 62
     8
370
    30
100
AcDbLine
 10
7.151111640256529
 20
4.201061004103416
 30
0.0
 11
7.427097718708467
 21
4.201061004103416
 31
0.0
  0
LINE
  5
4D9
330
1F
100
AcDbEntity
  8
0
  6
Continuous
 62
     8
370
    30
100
AcDbLine
 10
7.467318094079258
 20
4.201061004103416
 30
0.0
 11
8.100111743993017
 21
4.201061004103416
 31
0.0
  0
LINE
  5
4DA
330
1F
100
AcDbEntity
  8
0
  6
Continuous
 62
     8
370
    30
100
AcDbLine
 10
8.241111708482727
 20
4.201061004103416
 30
0.0
 11
8.630611708945485
 21
4.201061004103416
 31
0.0
  0
LINE
  5
4DB
330
1F
100
AcDbEntity
  8
0
  6
Continuous
 62
     8
370
    30
100
AcDbLine
 10
8.670611711028714
 20
4.201061004103416
 30
0.0
 11
8.920611708007415
 21
4.201061004103416
 31
0.0
  0
LINE
  5
4DC
330
1F
100
AcDbEntity
  8
0
  6
Continuous
 62
     8
370
    30
100
AcDbLine
 10
8.960611710090644
 20
4.201061004103416
 30
0.0
 11
9.350111710553403
 21
4.201061004103416
 31
0.0
  0
LINE
  5
4DD
330
1F
100
AcDbEntity
  8
0
  6
Continuous
 62
     8
370
    30
100
AcDbLine
 10
9.491111675043113
 20
4.201061004103416
 30
0.0
 11
10.12390532495687
 21
4.201061004103416
 31
0.0
  0
LINE
  5
4DE
330
1F
100
AcDbEntity
  8
0
  6
Continuous
 62
     8
370
    30
100
AcDbLine
 10
10.16412570032766
 20
4.201061004103416
 30
0.0
 11
10.4401117787796
 21
4.201061004103416
 31
0.0
  0
LINE
  5
4DF
330
1F
100
AcDbEntity
  8
0
  6
Continuous
 62
     8
370
    30
100
AcDbLine
 10
9.4206117294645
 20
4.506091513698274
 30
0.0
 11
9.242778800472339
 21
4.506091513698274
 31
0.0
  0
LINE
  5
4E0
330
1F
100
AcDbEntity
  8
0
  6
Continuous
 62
     8
370
    30
100
AcDbLine
 10
9.59844462179042
 20
4.506091513698274
 30
0.0
 11
9.4206117294645
 21
4.506091513698274
 31
0.0
  0
LINE
  5
4E1
330
1F
100
AcDbEntity
  8
0
  6
Continuous
 62
     8
370
    30
100
AcDbLine
 10
8.348444618563791
 20
4.506091513698274
 30
0.0
 11
7.992778797245709
 21
4.506091513698274
 31
0.0
  0
LINE
  5
4E2
330
1F
100
AcDbEntity
  8
0
  6
Continuous
 62
     8
370
    30
100
AcDbLine
 10
9.4206117294645
 20
2.61529460967879
 30
0.0
 11
9.607111715000753
 21
2.61529460967879
 31
0.0
  0
LINE
  5
4E3
330
1F
100
AcDbEntity
  8
0
  6
Continuous
 62
     8
370
    30
100
AcDbLine
 10
9.234111707262006
 20
2.61529460967879
 30
0.0
 11
9.4206117294645
 21
2.61529460967879
 31
0.0
  0
LINE
  5
4E4
330
1F
100
AcDbEntity
  8
0
  6
Continuous
 62
     8
370
    30
100
AcDbLine
 10
9.4206117294645
 20
2.597659136738612
 30
0.0
 11
9.596545163733122
 21
2.597659136738612
 31
0.0
  0
LINE
  5
4E5
330
1F
100
AcDbEntity
  8
0
  6
Continuous
 62
     8
370
    30
100
AcDbLine
 10
9.24467829519588
 20
2.597659136738612
 30
0.0
 11
9.4206117294645
 21
2.597659136738612
 31
0.0
  0
LINE
  5
4E6
330
1F
100
AcDbEntity
  8
0
  6
Continuous
 62
     8
370
    30
100
AcDbLine
 10
7.984111704035376
 20
2.61529460967879
 30
0.0
 11
8.357111711774124
 21
2.61529460967879
 31
0.0
  0
LINE
  5
4E7
330
1F
100
AcDbEntity
  8
0
  6
Continuous
 62
     8
370
    30
100
AcDbLine
 10
7.994678255303008
 20
2.597659136738612
 30
0.0
 11
8.346545123840249
 21
2.597659136738612
 31
0.0
  0
LINE
  5
4E8
330
1F
100
AcDbEntity
  8
0
  6
Continuous
 62
     8
370
    30
100
AcDbLine
 10
9.670611708110082
 20
3.116560973173651
 30
0.0
 11
9.620611712380965
 21
3.116560973173651
 31
0.0
  0
LINE
  5
4E9
330
1F
100
AcDbEntity
  8
0
  6
Continuous
 62
     8
370
    30
100
AcDbLine
 10
9.220611709881794
 20
3.116560973173651
 30
0.0
 11
9.170611714152678
 21
3.116560973173651
 31
0.0
  0
LINE
  5
4EA
330
1F
100
AcDbEntity
  8
0
  6
Continuous
 62
     8
370
    30
100
AcDbLine
 10
8.420611704883452
 20
3.116560973173651
 30
0.0
 11
8.370611709154336
 21
3.116560973173651
 31
0.0
  0
LINE
  5
4EB
330
1F
100
AcDbEntity
  8
0
  6
Continuous
 62
     8
370
    30
100
AcDbLine
 10
7.970611706655164
 20
3.116560973173651
 30
0.0
 11
7.920611710926049
 21
3.116560973173651
 31
0.0
  0
HATCH
  5
4EC
330
1F
100
AcDbEntity
  8
0
  6
Continuous
 62
     7
370
     0
100
AcDbHatch
 10
0.0
 20
0.0
 30
0.0
210
0.0
220
0.0
230
1.0
  2
ANSI32
 70
     0
 71
     0
 91
        1
 92
        0
 93
       25
 72
     1
 10
9.914611709518065
 20
3.105560976913373
 11
9.914611709518065
 21
3.030253677659691
 72
     2
 10
9.959611709518063
 20
3.030253677659691
 40
0.0449999999999989
 50
180.0
 51
263.3002348222425
 73
     1
 72
     2
 10
9.945611709518065
 20
2.911073142336175
 40
0.0750000000000004
 50
276.6997651777604
 51
360.0000000000008
 73
     0
 72
     1
 10
10.02061170951806
 20
2.911073142336175
 11
10.02061170951806
 21
2.234179156754839
 72
     2
 10
10.09361170951806
 20
2.150560976913373
 40
0.111
 50
131.1214761681852
 51
228.8785238318157
 73
     1
 72
     1
 10
10.02061170951806
 20
2.066942797071907
 11
10.02061170951806
 21
1.888560976913374
 72
     1
 10
10.02061170951806
 20
1.888560976913374
 11
9.670611709518067
 21
1.888560976913373
 72
     1
 10
9.670611709518067
 20
1.888560976913373
 11
9.670611709518067
 21
1.838560976913373
 72
     1
 10
9.670611709518067
 20
1.838560976913373
 11
10.54561170951806
 21
1.838560976913373
 72
     1
 10
10.54561170951806
 20
1.838560976913373
 11
10.54561170951806
 21
1.931560976913373
 72
     1
 10
10.54561170951806
 20
1.931560976913373
 11
10.49561170951807
 21
1.931560976913373
 72
     1
 10
10.49561170951807
 20
1.931560976913373
 11
10.49561170951807
 21
1.888560976913373
 72
     1
 10
10.49561170951807
 20
1.888560976913373
 11
10.07061170951807
 21
1.888560976913373
 72
     1
 10
10.07061170951807
 20
1.888560976913373
 11
10.07061170951807
 21
2.041970001229387
 72
     2
 10
10.09361170951806
 20
2.150560976913373
 40
0.111
 50
258.041262537409
 51
391.5198585798848
 73
     1
 72
     2
 10
10.1669231849279
 20
2.195521265760678
 40
0.0249999999999999
 50
31.51985857988353
 51
211.5198585798865
 73
     1
 72
     2
 10
10.09361170951806
 20
2.150560976913373
 40
0.0609999999999998
 50
328.4801414201174
 51
607.8489785585224
 73
     0
 72
     1
 10
10.07061170951807
 20
2.207058764480675
 11
10.07061170951806
 21
3.650560976913374
 72
     1
 10
10.07061170951806
 20
3.650560976913374
 11
10.02061170951806
 21
3.650560976913374
 72
     1
 10
10.02061170951806
 20
3.650560976913374
 11
10.02061170951806
 21
3.025560976913373
 72
     1
 10
10.02061170951806
 20
3.025560976913373
 11
9.955795360482643
 21
3.025560976913373
 72
     1
 10
9.955795360482643
 20
3.025560976913373
 11
9.964611709518064
 21
3.075560976913373
 72
     1
 10
9.964611709518064
 20
3.075560976913373
 11
9.931047724270973
 21
3.115560976913373
 72
     1
 10
9.931047724270973
 20
3.115560976913373
 11
9.924611709518066
 21
3.115560976913373
 72
     2
 10
9.924611709518066
 20
3.105560976913373
 40
0.0100000000000003
 50
90.0
 51
180.0
 73
     1
 97
        0
 75
     0
 76
     1
 52
0.0
 41
1.0
 77
     0
 78
     2
 53
45.0
 43
0.0
 44
0.0
 45
-0.2651650429449553
 46
0.2651650429449554
 79
     0
 53
45.0
 43
0.176776695
 44
0.0
 45
-0.2651650429449553
 46
0.2651650429449554
 79
     0
 98
        1
 10
0.0
 20
0.0
  0
HATCH
  5
4ED
330
1F
100
AcDbEntity
  8
0
  6
Continuous
 62
     7
370
     0
100
AcDbHatch
 10
0.0
 20
0.0
 30
0.0
210
0.0
220
0.0
230
1.0
  2
ANSI32
 70
     0
 71
     0
 91
        1
 92
        0
 93
       25
 72
     2
 10
7.645611709518065
 20
2.911073142336175
 40
0.0750000000000004
 50
180.0
 51
263.3002348222413
 73
     0
 72
     2
 10
7.631611709518066
 20
3.030253677659691
 40
0.0449999999999989
 50
276.6997651777614
 51
360.0000000000008
 73
     1
 72
     1
 10
7.676611709518065
 20
3.030253677659691
 11
7.676611709518065
 21
3.105560976913373
 72
     2
 10
7.666611709518065
 20
3.105560976913373
 40
0.0100000000000003
 50
0.0
 51
90.0
 73
     1
 72
     1
 10
7.666611709518065
 20
3.115560976913373
 11
7.660175694765158
 21
3.115560976913373
 72
     1
 10
7.660175694765158
 20
3.115560976913373
 11
7.626611709518065
 21
3.075560976913373
 72
     1
 10
7.626611709518065
 20
3.075560976913373
 11
7.635428058553486
 21
3.025560976913373
 72
     1
 10
7.635428058553486
 20
3.025560976913373
 11
7.570611709518064
 21
3.025560976913373
 72
     1
 10
7.570611709518064
 20
3.025560976913373
 11
7.570611709518064
 21
3.650560976913374
 72
     1
 10
7.570611709518064
 20
3.650560976913374
 11
7.520611709518065
 21
3.650560976913374
 72
     1
 10
7.520611709518065
 20
3.650560976913374
 11
7.520611709518064
 21
2.207058764480675
 72
     2
 10
7.497611709518064
 20
2.150560976913373
 40
0.0609999999999998
 50
292.1510214414801
 51
571.519858579886
 73
     0
 72
     2
 10
7.424300234108229
 20
2.195521265760678
 40
0.0249999999999999
 50
328.4801414201152
 51
508.4801414201183
 73
     1
 72
     2
 10
7.497611709518064
 20
2.150560976913373
 40
0.111
 50
148.4801414201158
 51
281.9587374625927
 73
     1
 72
     1
 10
7.520611709518064
 20
2.041970001229387
 11
7.520611709518064
 21
1.888560976913373
 72
     1
 10
7.520611709518064
 20
1.888560976913373
 11
7.095611709518064
 21
1.888560976913373
 72
     1
 10
7.095611709518064
 20
1.888560976913373
 11
7.095611709518064
 21
1.931560976913373
 72
     1
 10
7.095611709518064
 20
1.931560976913373
 11
7.045611709518064
 21
1.931560976913373
 72
     1
 10
7.045611709518064
 20
1.931560976913373
 11
7.045611709518064
 21
1.838560976913373
 72
     1
 10
7.045611709518064
 20
1.838560976913373
 11
7.920611709518064
 21
1.838560976913373
 72
     1
 10
7.920611709518064
 20
1.838560976913373
 11
7.920611709518064
 21
1.888560976913373
 72
     1
 10
7.920611709518064
 20
1.888560976913373
 11
7.570611709518064
 21
1.888560976913374
 72
     1
 10
7.570611709518064
 20
1.888560976913374
 11
7.570611709518064
 21
2.066942797071907
 72
     2
 10
7.497611709518064
 20
2.150560976913373
 40
0.111
 50
311.1214761681859
 51
408.8785238318156
 73
     1
 72
     1
 10
7.570611709518064
 20
2.234179156754839
 11
7.570611709518064
 21
2.911073142336175
 97
        0
 75
     0
 76
     1
 52
0.0
 41
1.0
 77
     0
 78
     2
 53
45.0
 43
0.0
 44
0.0
 45
-0.2651650429449553
 46
0.2651650429449554
 79
     0
 53
45.0
 43
0.176776695
 44
0.0
 45
-0.2651650429449553
 46
0.2651650429449554
 79
     0
 98
        1
 10
0.0
 20
0.0
  0
HATCH
  5
4EE
330
1F
100
AcDbEntity
  8
0
  6
Continuous
 62
     7
370
     0
100
AcDbHatch
 10
0.0
 20
0.0
 30
0.0
210
0.0
220
0.0
230
1.0
  2
ANSI32
 70
     0
 71
     0
 91
        1
 92
        0
 93
       33
 72
     1
 10
8.420611709518065
 20
1.838560976913373
 11
9.170611709518065
 21
1.838560976913373
 72
     1
 10
9.170611709518065
 20
1.838560976913373
 11
9.170611709518065
 21
1.888560976913373
 72
     1
 10
9.170611709518065
 20
1.888560976913373
 11
8.920203292299567
 21
1.888560976913373
 72
     2
 10
8.920203292299568
 20
1.913560976913373
 40
0.025
 50
90.00000000000406
 51
201.8661451299974
 73
     0
 72
     2
 10
8.795611709518065
 20
1.963560976913373
 40
0.10925
 50
338.1338548700026
 51
436.7716275078586
 73
     1
 72
     1
 10
8.820611709518065
 20
2.069912105257176
 11
8.820611709518065
 21
2.911073142336175
 72
     2
 10
8.895611709518066
 20
2.911073142336175
 40
0.0749999999999998
 50
180.0
 51
263.3002348222399
 73
     0
 72
     2
 10
8.881611709518065
 20
3.030253677659692
 40
0.045
 50
276.6997651777613
 51
360.0000000000008
 73
     1
 72
     1
 10
8.926611709518065
 20
3.030253677659692
 11
8.926611709518065
 21
3.105560976913373
 72
     2
 10
8.916611709518065
 20
3.105560976913373
 40
0.0099999999999999
 50
0.0
 51
90.0
 73
     1
 72
     1
 10
8.916611709518065
 20
3.115560976913373
 11
8.910175694765156
 21
3.115560976913373
 72
     1
 10
8.910175694765156
 20
3.115560976913373
 11
8.876611709518066
 21
3.075560976913373
 72
     1
 10
8.876611709518066
 20
3.075560976913373
 11
8.885428058553488
 21
3.025560976913373
 72
     1
 10
8.885428058553488
 20
3.025560976913373
 11
8.820611709518065
 21
3.025560976913373
 72
     1
 10
8.820611709518065
 20
3.025560976913373
 11
8.820611709518065
 21
3.650560976913373
 72
     1
 10
8.820611709518065
 20
3.650560976913373
 11
8.770611709518064
 21
3.650560976913373
 72
     1
 10
8.770611709518064
 20
3.650560976913373
 11
8.770611709518064
 21
3.025560976913373
 72
     1
 10
8.770611709518064
 20
3.025560976913373
 11
8.705795360482641
 21
3.025560976913373
 72
     1
 10
8.705795360482641
 20
3.025560976913373
 11
8.714611709518065
 21
3.075560976913373
 72
     1
 10
8.714611709518065
 20
3.075560976913373
 11
8.681047724270973
 21
3.115560976913373
 72
     1
 10
8.681047724270973
 20
3.115560976913373
 11
8.674611709518064
 21
3.115560976913373
 72
     2
 10
8.674611709518064
 20
3.105560976913373
 40
0.0099999999999999
 50
90.0
 51
180.0
 73
     1
 72
     1
 10
8.664611709518066
 20
3.105560976913373
 11
8.664611709518065
 21
3.030253677659692
 72
     2
 10
8.709611709518065
 20
3.030253677659692
 40
0.045
 50
180.0
 51
263.3002348222404
 73
     1
 72
     2
 10
8.695611709518065
 20
2.911073142336175
 40
0.0749999999999998
 50
276.6997651777604
 51
360.0000000000008
 73
     0
 72
     1
 10
8.770611709518064
 20
2.911073142336175
 11
8.770611709518064
 21
2.022810976913373
 72
     1
 10
8.770611709518064
 20
2.022810976913373
 11
8.795611709518065
 21
2.022810976913373
 72
     2
 10
8.795611709518065
 20
1.963560976913373
 40
0.05925
 50
270.0000000000008
 51
526.9332707856632
 73
     0
 72
     2
 10
8.713543159718323
 20
1.944513257003439
 40
0.025
 50
13.06672921433955
 51
193.0667292143384
 73
     1
 72
     2
 10
8.795611709518065
 20
1.963560976913373
 40
0.10925
 50
193.0667292143389
 51
201.866145129999
 73
     1
 72
     2
 10
8.671020126736563
 20
1.913560976913373
 40
0.025
 50
338.1338548700027
 51
450.0000000000008
 73
     0
 72
     1
 10
8.671020126736563
 20
1.888560976913373
 11
8.420611709518065
 21
1.888560976913373
 72
     1
 10
8.420611709518065
 20
1.888560976913373
 11
8.420611709518065
 21
1.838560976913373
 97
        0
 75
     0
 76
     1
 52
0.0
 41
1.0
 77
     0
 78
     2
 53
45.0
 43
0.0
 44
0.0
 45
-0.2651650429449553
 46
0.2651650429449554
 79
     0
 53
45.0
 43
0.176776695
 44
0.0
 45
-0.2651650429449553
 46
0.2651650429449554
 79
     0
 98
        1
 10
0.0
 20
0.0
  0
HATCH
  5
4EF
330
1F
100
AcDbEntity
  8
0
  6
Continuous
 62
     7
370
     0
100
AcDbHatch
 10
0.0
 20
0.0
 30
0.0
210
0.0
220
0.0
230
1.0
  2
LINE
 70
     0
 71
     0
 91
        1
 92
        0
 93
       77
 72
     1
 10
9.494180718128643
 20
2.797853362527826
 11
9.494180718128648
 21
2.791988237568219
 72
     1
 10
9.494180718128648
 20
2.791988237568219
 11
9.505555741580196
 21
2.785420864716424
 72
     2
 10
9.502611709518064
 20
2.754560976913369
 40
0.031
 50
275.4495226951378
 51
450.0000000000008
 73
     0
 72
     1
 10
9.502611709518064
 20
2.723560976913369
 11
9.338611709518066
 21
2.723560976913369
 72
     2
 10
9.338611709518066
 20
2.754560976913369
 40
0.031
 50
90.0
 51
255.2623825483988
 73
     0
 72
     2
 10
9.321578774581047
 20
2.788582999107385
 40
0.0100000000000016
 50
336.1596651701942
 51
374.6901250941301
 73
     1
 72
     1
 10
9.331251889316007
 20
2.791118911433251
 11
9.326650640600633
 21
2.793775443617681
 72
     1
 10
9.326650640600633
 20
2.793775443617681
 11
9.326650640600633
 21
2.799631930041083
 72
     1
 10
9.326650640600633
 20
2.799631930041083
 11
9.34701100096091
 21
2.811386989575898
 72
     1
 10
9.34701100096091
 20
2.811386989575898
 11
9.34701100096091
 21
2.817243807506303
 72
     1
 10
9.34701100096091
 20
2.817243807506303
 11
9.326650640600633
 21
2.828998867041106
 72
     1
 10
9.326650640600633
 20
2.828998867041106
 11
9.326650640600633
 21
2.834855353464516
 72
     1
 10
9.326650640600633
 20
2.834855353464516
 11
9.34701100096091
 21
2.846610412999318
 72
     1
 10
9.34701100096091
 20
2.846610412999318
 11
9.34701100096091
 21
2.852467230929723
 72
     1
 10
9.34701100096091
 20
2.852467230929723
 11
9.326650640600633
 21
2.864222290464538
 72
     1
 10
9.326650640600633
 20
2.864222290464538
 11
9.326650640600633
 21
2.870078776887936
 72
     1
 10
9.326650640600633
 20
2.870078776887936
 11
9.347011000960995
 21
2.88183383642279
 72
     1
 10
9.347011000960995
 20
2.88183383642279
 11
9.347011000960995
 21
2.887690654353105
 72
     1
 10
9.347011000960995
 20
2.887690654353105
 11
9.326650640600626
 21
2.899445713887958
 72
     1
 10
9.326650640600626
 20
2.899445713887958
 11
9.326650640600633
 21
2.905302200311369
 72
     1
 10
9.326650640600633
 20
2.905302200311369
 11
9.347011000960995
 21
2.917057259846223
 72
     1
 10
9.347011000960995
 20
2.917057259846223
 11
9.347011000960995
 21
2.922914077776538
 72
     1
 10
9.347011000960995
 20
2.922914077776538
 11
9.326650640600633
 21
2.934669137311391
 72
     1
 10
9.326650640600633
 20
2.934669137311391
 11
9.326650640600633
 21
2.940525623734789
 72
     1
 10
9.326650640600633
 20
2.940525623734789
 11
9.34701100096099
 21
2.952280683269642
 72
     1
 10
9.34701100096099
 20
2.952280683269642
 11
9.34701100096099
 21
2.958137501199957
 72
     1
 10
9.34701100096099
 20
2.958137501199957
 11
9.326650640600633
 21
2.969892560734811
 72
     1
 10
9.326650640600633
 20
2.969892560734811
 11
9.326650640600633
 21
2.975749047158221
 72
     1
 10
9.326650640600633
 20
2.975749047158221
 11
9.347011000960995
 21
2.987504106693075
 72
     1
 10
9.347011000960995
 20
2.987504106693075
 11
9.347011000960995
 21
2.993360924623377
 72
     1
 10
9.347011000960995
 20
2.993360924623377
 11
9.326650640600633
 21
3.005115984158244
 72
     1
 10
9.326650640600633
 20
3.005115984158244
 11
9.326650640600633
 21
3.010972470581641
 72
     1
 10
9.326650640600633
 20
3.010972470581641
 11
9.347011000960995
 21
3.022727530116495
 72
     1
 10
9.347011000960995
 20
3.022727530116495
 11
9.347011000960995
 21
3.02858434804681
 72
     1
 10
9.347011000960995
 20
3.02858434804681
 11
9.329730972875856
 21
3.038560976913369
 72
     1
 10
9.329730972875856
 20
3.038560976913369
 11
9.232611709518064
 21
3.038560976913369
 72
     2
 10
9.232611709518064
 20
2.97656097691337
 40
0.0619999999999996
 50
90.0
 51
180.0000000000016
 73
     1
 72
     1
 10
9.170611709518065
 20
2.976560976913369
 11
9.170611709518065
 21
2.97497199760249
 72
     2
 10
9.180611709518054
 20
2.974971997602497
 40
0.00999999999999
 50
180.000000000039
 51
293.2698239585022
 73
     1
 72
     2
 10
9.212611709518068
 20
2.900560976913364
 40
0.0710000000000075
 50
246.7301760415462
 51
412.418442381248
 73
     0
 72
     2
 10
9.268111709518067
 20
2.82844475127723
 40
0.0199999999999998
 50
127.5815576187576
 51
180.0000000000021
 73
     1
 72
     1
 10
9.248111709518065
 20
2.828444751277229
 11
9.248111709518065
 21
2.66356097691337
 72
     1
 10
9.248111709518065
 20
2.66356097691337
 11
9.593111709518064
 21
2.66356097691337
 72
     1
 10
9.593111709518064
 20
2.66356097691337
 11
9.593111709518064
 21
2.828444751277222
 72
     2
 10
9.573111709518066
 20
2.828444751277222
 40
0.0199999999999986
 50
359.9999999999983
 51
412.4184423812513
 73
     1
 72
     2
 10
9.62861170951806
 20
2.90056097691336
 40
0.0710000000000106
 50
127.5815576187495
 51
293.2698239584557
 73
     0
 72
     2
 10
9.660611709518076
 20
2.974971997602497
 40
0.0099999999999901
 50
246.7301760414994
 51
359.9999999999627
 73
     1
 72
     1
 10
9.670611709518067
 20
2.97497199760249
 11
9.670611709518065
 21
2.97656097691337
 72
     2
 10
9.608611709518065
 20
2.97656097691337
 40
0.0619999999999996
 50
0.0
 51
90.0
 73
     1
 72
     1
 10
9.608611709518065
 20
3.038560976913369
 11
9.494181529337881
 21
3.038560976913369
 72
     1
 10
9.494181529337881
 20
3.038560976913369
 11
9.514541889698245
 21
3.026805917378516
 72
     1
 10
9.514541889698245
 20
3.026805917378516
 11
9.514541889698245
 21
3.020949430955118
 72
     1
 10
9.514541889698245
 20
3.020949430955118
 11
9.49418152933788
 21
3.009194371420252
 72
     1
 10
9.49418152933788
 20
3.009194371420252
 11
9.49418152933788
 21
3.00333755348995
 72
     1
 10
9.49418152933788
 20
3.00333755348995
 11
9.514541889698245
 21
2.991582493955083
 72
     1
 10
9.514541889698245
 20
2.991582493955083
 11
9.514541889698245
 21
2.985726007531685
 72
     1
 10
9.514541889698245
 20
2.985726007531685
 11
9.49418152933788
 21
2.973970947996832
 72
     1
 10
9.49418152933788
 20
2.973970947996832
 11
9.49418152933788
 21
2.968114130066517
 72
     1
 10
9.49418152933788
 20
2.968114130066517
 11
9.514541889698245
 21
2.956359070531664
 72
     1
 10
9.514541889698245
 20
2.956359070531664
 11
9.514541889698245
 21
2.950502584108265
 72
     1
 10
9.514541889698245
 20
2.950502584108265
 11
9.49418152933788
 21
2.938747524573412
 72
     1
 10
9.49418152933788
 20
2.938747524573412
 11
9.49418152933788
 21
2.932890706643096
 72
     1
 10
9.49418152933788
 20
2.932890706643096
 11
9.514541889698245
 21
2.921135647108244
 72
     1
 10
9.514541889698245
 20
2.921135647108244
 11
9.514541889698245
 21
2.915279160684832
 72
     1
 10
9.514541889698245
 20
2.915279160684832
 11
9.49418152933788
 21
2.903524101149979
 72
     1
 10
9.49418152933788
 20
2.903524101149979
 11
9.494181529337958
 21
2.897667283219625
 72
     1
 10
9.494181529337958
 20
2.897667283219625
 11
9.514541889698245
 21
2.88591222368481
 72
     1
 10
9.514541889698245
 20
2.88591222368481
 11
9.514541889698245
 21
2.880055737261413
 72
     1
 10
9.514541889698245
 20
2.880055737261413
 11
9.49418152933788
 21
2.868300677726559
 72
     1
 10
9.49418152933788
 20
2.868300677726559
 11
9.49418152933788
 21
2.862443859796244
 72
     1
 10
9.49418152933788
 20
2.862443859796244
 11
9.514541889698245
 21
2.85068880026139
 72
     1
 10
9.514541889698245
 20
2.85068880026139
 11
9.514541889698245
 21
2.84483231383798
 72
     1
 10
9.514541889698245
 20
2.84483231383798
 11
9.49418152933788
 21
2.833077254303126
 72
     1
 10
9.49418152933788
 20
2.833077254303126
 11
9.49418152933788
 21
2.827220436372811
 72
     1
 10
9.49418152933788
 20
2.827220436372811
 11
9.514541889698245
 21
2.815465376837958
 72
     1
 10
9.514541889698245
 20
2.815465376837958
 11
9.514541889698245
 21
2.80960889041456
 72
     1
 10
9.514541889698245
 20
2.80960889041456
 11
9.494180718128643
 21
2.797853362527826
 97
        0
 75
     0
 76
     1
 52
45.0000000000001
 41
0.125
 77
     0
 78
     1
 53
45.0000000000001
 43
0.0
 44
0.0
 45
-0.0110485434560398
 46
0.0110485434560398
 79
     0
 98
        1
 10
0.0
 20
0.0
  0
HATCH
  5
4F0
330
1F
100
AcDbEntity
  8
0
  6
Continuous
 62
     7
370
     0
100
AcDbHatch
 10
0.0
 20
0.0
 30
0.0
210
0.0
220
0.0
230
1.0
  2
LINE
 70
     0
 71
     0
 91
        1
 92
        0
 93
       18
 72
     1
 10
9.645883726756006
 20
2.948015454263049
 11
9.652040089335868
 21
2.964929921437195
 72
     2
 10
9.62861170951806
 20
2.90056097691336
 40
0.0685
 50
69.99999999999999
 51
240.1644397768163
 73
     1
 72
     2
 10
9.578611709518059
 20
2.813381564206002
 40
0.032
 50
299.8355602231841
 51
360.0000000000008
 73
     0
 72
     1
 10
9.610611709518059
 20
2.813381564206002
 11
9.610611709518059
 21
2.69556097691336
 72
     2
 10
9.878611709518058
 20
2.69556097691336
 40
0.268
 50
180.0
 51
243.214531621867
 73
     1
 72
     2
 10
9.73755790131238
 20
2.41614583202913
 40
0.0449999999999999
 50
296.7854683781346
 51
368.0229869068664
 73
     0
 72
     2
 10
9.42861170951806
 20
2.459691791379989
 40
0.3569999999999999
 50
8.022986906865777
 51
81.15011690157104
 73
     0
 72
     2
 10
9.47861170951806
 20
2.13856097691336
 40
0.0319999999999999
 50
81.15011690156999
 51
180.0
 73
     0
 72
     1
 10
9.44661170951806
 20
2.13856097691336
 11
9.44661170951806
 21
2.26856097691336
 72
     1
 10
9.44661170951806
 20
2.26856097691336
 11
9.42861170951806
 21
2.26856097691336
 72
     1
 10
9.42861170951806
 20
2.26856097691336
 11
9.42861170951806
 21
2.13856097691336
 72
     2
 10
9.47861170951806
 20
2.13856097691336
 40
0.0499999999999999
 50
180.0
 51
278.8498830984299
 73
     1
 72
     2
 10
9.42861170951806
 20
2.459691791379989
 40
0.3749999999999999
 50
278.8498830984297
 51
351.977013093135
 73
     1
 72
     2
 10
9.73755790131238
 20
2.41614583202913
 40
0.0629999999999999
 50
351.9770130931352
 51
423.2145316218669
 73
     1
 72
     2
 10
9.878611709518058
 20
2.69556097691336
 40
0.25
 50
116.7854683781338
 51
180.0
 73
     0
 72
     1
 10
9.62861170951806
 20
2.69556097691336
 11
9.62861170951806
 21
2.813381564206002
 72
     2
 10
9.578611709518059
 20
2.813381564206002
 40
0.05
 50
0.0
 51
60.16443977681596
 73
     1
 72
     2
 10
9.62861170951806
 20
2.90056097691336
 40
0.0505
 50
119.8355602231842
 51
290.000000000001
 73
     0
 97
        0
 75
     0
 76
     1
 52
0.0
 41
0.03125
 77
     0
 78
     1
 53
0.0
 43
0.0
 44
0.0
 45
0.0
 46
0.00390625
 79
     0
 98
        1
 10
0.0
 20
0.0
  0
HATCH
  5
4F1
330
1F
100
AcDbEntity
  8
0
  6
Continuous
 62
     7
370
     0
100
AcDbHatch
 10
0.0
 20
0.0
 30
0.0
210
0.0
220
0.0
230
1.0
  2
LINE
 70
     0
 71
     0
 91
        1
 92
        0
 93
       18
 72
     2
 10
9.26261170951807
 20
2.813381564206005
 40
0.032
 50
180.0
 51
240.1644397768179
 73
     0
 72
     2
 10
9.21261170951807
 20
2.900560976913364
 40
0.0685
 50
299.8355602231855
 51
470.0000000000008
 73
     1
 72
     1
 10
9.189183329700262
 20
2.964929921437198
 11
9.195339692280124
 21
2.948015454263052
 72
     2
 10
9.21261170951807
 20
2.900560976913364
 40
0.0505
 50
250.0000000000009
 51
420.1644397768166
 73
     0
 72
     2
 10
9.26261170951807
 20
2.813381564206005
 40
0.05
 50
119.835560223184
 51
180.0
 73
     1
 72
     1
 10
9.21261170951807
 20
2.813381564206005
 11
9.21261170951807
 21
2.695560976913363
 72
     2
 10
8.96261170951807
 20
2.695560976913363
 40
0.25
 50
0.0
 51
63.21453162186589
 73
     0
 72
     2
 10
9.10366551772375
 20
2.416145832029132
 40
0.0629999999999999
 50
116.7854683781338
 51
188.0229869068664
 73
     1
 72
     2
 10
9.412611709518071
 20
2.459691791379992
 40
0.3749999999999999
 50
188.0229869068666
 51
261.1501169015717
 73
     1
 72
     2
 10
9.36261170951807
 20
2.138560976913363
 40
0.0499999999999999
 50
261.1501169015718
 51
360.0000000000008
 73
     1
 72
     1
 10
9.412611709518071
 20
2.138560976913363
 11
9.412611709518071
 21
2.268560976913363
 72
     1
 10
9.412611709518071
 20
2.268560976913363
 11
9.39461170951807
 21
2.268560976913363
 72
     1
 10
9.39461170951807
 20
2.268560976913363
 11
9.39461170951807
 21
2.138560976913363
 72
     2
 10
9.36261170951807
 20
2.138560976913363
 40
0.0319999999999999
 50
0.0
 51
98.84988309843003
 73
     0
 72
     2
 10
9.412611709518071
 20
2.459691791379992
 40
0.3569999999999999
 50
98.84988309842923
 51
171.9770130931342
 73
     0
 72
     2
 10
9.10366551772375
 20
2.416145832029132
 40
0.0449999999999999
 50
171.977013093135
 51
243.2145316218673
 73
     0
 72
     2
 10
8.96261170951807
 20
2.695560976913363
 40
0.268
 50
296.7854683781349
 51
360.0000000000008
 73
     1
 72
     1
 10
9.23061170951807
 20
2.695560976913363
 11
9.23061170951807
 21
2.813381564206005
 97
        0
 75
     0
 76
     1
 52
0.0
 41
0.03125
 77
     0
 78
     1
 53
0.0
 43
0.0
 44
0.0
 45
0.0
 46
0.00390625
 79
     0
 98
        1
 10
0.0
 20
0.0
  0
HATCH
  5
4F2
330
1F
100
AcDbEntity
  8
0
  6
Continuous
 62
     7
370
     0
100
AcDbHatch
 10
0.0
 20
0.0
 30
0.0
210
0.0
220
0.0
230
1.0
  2
LINE
 70
     0
 71
     0
 91
        1
 92
        0
 93
       77
 72
     1
 10
8.244180718128643
 20
2.797853362527826
 11
8.244180718128648
 21
2.791988237568219
 72
     1
 10
8.244180718128648
 20
2.791988237568219
 11
8.255555741580196
 21
2.785420864716424
 72
     2
 10
8.252611709518064
 20
2.754560976913369
 40
0.031
 50
275.4495226951378
 51
450.0000000000008
 73
     0
 72
     1
 10
8.252611709518064
 20
2.723560976913369
 11
8.088611709518066
 21
2.723560976913369
 72
     2
 10
8.088611709518066
 20
2.754560976913369
 40
0.031
 50
90.0
 51
255.2623825483988
 73
     0
 72
     2
 10
8.071578774581047
 20
2.788582999107385
 40
0.0100000000000016
 50
336.1596651701942
 51
374.6901250941326
 73
     1
 72
     1
 10
8.081251889316006
 20
2.791118911433251
 11
8.076650640600631
 21
2.793775443617681
 72
     1
 10
8.076650640600631
 20
2.793775443617681
 11
8.076650640600631
 21
2.799631930041083
 72
     1
 10
8.076650640600631
 20
2.799631930041083
 11
8.09701100096091
 21
2.811386989575898
 72
     1
 10
8.09701100096091
 20
2.811386989575898
 11
8.09701100096091
 21
2.817243807506303
 72
     1
 10
8.09701100096091
 20
2.817243807506303
 11
8.076650640600631
 21
2.828998867041106
 72
     1
 10
8.076650640600631
 20
2.828998867041106
 11
8.076650640600631
 21
2.834855353464516
 72
     1
 10
8.076650640600631
 20
2.834855353464516
 11
8.09701100096091
 21
2.846610412999318
 72
     1
 10
8.09701100096091
 20
2.846610412999318
 11
8.09701100096091
 21
2.852467230929723
 72
     1
 10
8.09701100096091
 20
2.852467230929723
 11
8.076650640600631
 21
2.864222290464538
 72
     1
 10
8.076650640600631
 20
2.864222290464538
 11
8.076650640600631
 21
2.870078776887936
 72
     1
 10
8.076650640600631
 20
2.870078776887936
 11
8.097011000960995
 21
2.88183383642279
 72
     1
 10
8.097011000960995
 20
2.88183383642279
 11
8.097011000960995
 21
2.887690654353105
 72
     1
 10
8.097011000960995
 20
2.887690654353105
 11
8.076650640600626
 21
2.899445713887958
 72
     1
 10
8.076650640600626
 20
2.899445713887958
 11
8.076650640600631
 21
2.905302200311369
 72
     1
 10
8.076650640600631
 20
2.905302200311369
 11
8.097011000960995
 21
2.917057259846223
 72
     1
 10
8.097011000960995
 20
2.917057259846223
 11
8.097011000960995
 21
2.922914077776538
 72
     1
 10
8.097011000960995
 20
2.922914077776538
 11
8.076650640600631
 21
2.934669137311391
 72
     1
 10
8.076650640600631
 20
2.934669137311391
 11
8.076650640600631
 21
2.940525623734789
 72
     1
 10
8.076650640600631
 20
2.940525623734789
 11
8.09701100096099
 21
2.952280683269642
 72
     1
 10
8.09701100096099
 20
2.952280683269642
 11
8.09701100096099
 21
2.958137501199957
 72
     1
 10
8.09701100096099
 20
2.958137501199957
 11
8.076650640600631
 21
2.969892560734811
 72
     1
 10
8.076650640600631
 20
2.969892560734811
 11
8.076650640600631
 21
2.975749047158221
 72
     1
 10
8.076650640600631
 20
2.975749047158221
 11
8.097011000960995
 21
2.987504106693075
 72
     1
 10
8.097011000960995
 20
2.987504106693075
 11
8.097011000960995
 21
2.993360924623377
 72
     1
 10
8.097011000960995
 20
2.993360924623377
 11
8.076650640600631
 21
3.005115984158244
 72
     1
 10
8.076650640600631
 20
3.005115984158244
 11
8.076650640600631
 21
3.010972470581641
 72
     1
 10
8.076650640600631
 20
3.010972470581641
 11
8.097011000960995
 21
3.022727530116495
 72
     1
 10
8.097011000960995
 20
3.022727530116495
 11
8.097011000960995
 21
3.02858434804681
 72
     1
 10
8.097011000960995
 20
3.02858434804681
 11
8.079730972875856
 21
3.038560976913369
 72
     1
 10
8.079730972875856
 20
3.038560976913369
 11
7.982611709518064
 21
3.038560976913369
 72
     2
 10
7.982611709518064
 20
2.97656097691337
 40
0.0619999999999996
 50
90.0
 51
180.0000000000016
 73
     1
 72
     1
 10
7.920611709518065
 20
2.976560976913369
 11
7.920611709518065
 21
2.97497199760249
 72
     2
 10
7.930611709518054
 20
2.974971997602497
 40
0.00999999999999
 50
180.000000000039
 51
293.2698239585022
 73
     1
 72
     2
 10
7.962611709518068
 20
2.900560976913364
 40
0.0710000000000075
 50
246.7301760415462
 51
412.418442381248
 73
     0
 72
     2
 10
8.018111709518065
 20
2.82844475127723
 40
0.0199999999999998
 50
127.5815576187536
 51
180.0000000000021
 73
     1
 72
     1
 10
7.998111709518065
 20
2.828444751277229
 11
7.998111709518065
 21
2.66356097691337
 72
     1
 10
7.998111709518065
 20
2.66356097691337
 11
8.343111709518064
 21
2.66356097691337
 72
     1
 10
8.343111709518064
 20
2.66356097691337
 11
8.343111709518064
 21
2.828444751277222
 72
     2
 10
8.323111709518066
 20
2.828444751277222
 40
0.0199999999999986
 50
359.9999999999983
 51
412.4184423812513
 73
     1
 72
     2
 10
8.37861170951806
 20
2.90056097691336
 40
0.0710000000000106
 50
127.5815576187495
 51
293.2698239584557
 73
     0
 72
     2
 10
8.410611709518076
 20
2.974971997602497
 40
0.0099999999999901
 50
246.7301760414994
 51
359.9999999999627
 73
     1
 72
     1
 10
8.420611709518065
 20
2.97497199760249
 11
8.420611709518065
 21
2.97656097691337
 72
     2
 10
8.358611709518065
 20
2.97656097691337
 40
0.0619999999999996
 50
0.0
 51
90.0
 73
     1
 72
     1
 10
8.358611709518065
 20
3.038560976913369
 11
8.244181529337881
 21
3.038560976913369
 72
     1
 10
8.244181529337881
 20
3.038560976913369
 11
8.264541889698245
 21
3.026805917378516
 72
     1
 10
8.264541889698245
 20
3.026805917378516
 11
8.264541889698245
 21
3.020949430955118
 72
     1
 10
8.264541889698245
 20
3.020949430955118
 11
8.24418152933788
 21
3.009194371420252
 72
     1
 10
8.24418152933788
 20
3.009194371420252
 11
8.24418152933788
 21
3.00333755348995
 72
     1
 10
8.24418152933788
 20
3.00333755348995
 11
8.264541889698245
 21
2.991582493955083
 72
     1
 10
8.264541889698245
 20
2.991582493955083
 11
8.264541889698245
 21
2.985726007531685
 72
     1
 10
8.264541889698245
 20
2.985726007531685
 11
8.24418152933788
 21
2.973970947996832
 72
     1
 10
8.24418152933788
 20
2.973970947996832
 11
8.24418152933788
 21
2.968114130066517
 72
     1
 10
8.24418152933788
 20
2.968114130066517
 11
8.264541889698245
 21
2.956359070531664
 72
     1
 10
8.264541889698245
 20
2.956359070531664
 11
8.264541889698245
 21
2.950502584108265
 72
     1
 10
8.264541889698245
 20
2.950502584108265
 11
8.24418152933788
 21
2.938747524573412
 72
     1
 10
8.24418152933788
 20
2.938747524573412
 11
8.24418152933788
 21
2.932890706643096
 72
     1
 10
8.24418152933788
 20
2.932890706643096
 11
8.264541889698245
 21
2.921135647108244
 72
     1
 10
8.264541889698245
 20
2.921135647108244
 11
8.264541889698245
 21
2.915279160684832
 72
     1
 10
8.264541889698245
 20
2.915279160684832
 11
8.24418152933788
 21
2.903524101149979
 72
     1
 10
8.24418152933788
 20
2.903524101149979
 11
8.244181529337958
 21
2.897667283219625
 72
     1
 10
8.244181529337958
 20
2.897667283219625
 11
8.264541889698245
 21
2.88591222368481
 72
     1
 10
8.264541889698245
 20
2.88591222368481
 11
8.264541889698245
 21
2.880055737261413
 72
     1
 10
8.264541889698245
 20
2.880055737261413
 11
8.24418152933788
 21
2.868300677726559
 72
     1
 10
8.24418152933788
 20
2.868300677726559
 11
8.24418152933788
 21
2.862443859796244
 72
     1
 10
8.24418152933788
 20
2.862443859796244
 11
8.264541889698245
 21
2.85068880026139
 72
     1
 10
8.264541889698245
 20
2.85068880026139
 11
8.264541889698245
 21
2.84483231383798
 72
     1
 10
8.264541889698245
 20
2.84483231383798
 11
8.24418152933788
 21
2.833077254303126
 72
     1
 10
8.24418152933788
 20
2.833077254303126
 11
8.24418152933788
 21
2.827220436372811
 72
     1
 10
8.24418152933788
 20
2.827220436372811
 11
8.264541889698245
 21
2.815465376837958
 72
     1
 10
8.264541889698245
 20
2.815465376837958
 11
8.264541889698245
 21
2.80960889041456
 72
     1
 10
8.264541889698245
 20
2.80960889041456
 11
8.244180718128643
 21
2.797853362527826
 97
        0
 75
     0
 76
     1
 52
45.0000000000001
 41
0.125
 77
     0
 78
     1
 53
45.0000000000001
 43
0.0
 44
0.0
 45
-0.0110485434560398
 46
0.0110485434560398
 79
     0
 98
        1
 10
0.0
 20
0.0
  0
HATCH
  5
4F3
330
1F
100
AcDbEntity
  8
0
  6
Continuous
 62
     7
370
     0
100
AcDbHatch
 10
0.0
 20
0.0
 30
0.0
210
0.0
220
0.0
230
1.0
  2
LINE
 70
     0
 71
     0
 91
        1
 92
        0
 93
       18
 72
     1
 10
8.395883726756006
 20
2.948015454263049
 11
8.402040089335868
 21
2.964929921437195
 72
     2
 10
8.37861170951806
 20
2.90056097691336
 40
0.0685
 50
69.99999999999999
 51
240.1644397768163
 73
     1
 72
     2
 10
8.328611709518059
 20
2.813381564206002
 40
0.032
 50
299.8355602231841
 51
360.0000000000008
 73
     0
 72
     1
 10
8.360611709518059
 20
2.813381564206002
 11
8.360611709518059
 21
2.69556097691336
 72
     2
 10
8.62861170951806
 20
2.69556097691336
 40
0.268
 50
180.0
 51
243.2145316218667
 73
     1
 72
     2
 10
8.48755790131238
 20
2.41614583202913
 40
0.0449999999999999
 50
296.7854683781346
 51
368.0229869068664
 73
     0
 72
     2
 10
8.17861170951806
 20
2.459691791379989
 40
0.3569999999999999
 50
8.022986906865777
 51
81.15011690157104
 73
     0
 72
     2
 10
8.22861170951806
 20
2.13856097691336
 40
0.0319999999999999
 50
81.15011690156999
 51
180.0
 73
     0
 72
     1
 10
8.19661170951806
 20
2.13856097691336
 11
8.19661170951806
 21
2.26856097691336
 72
     1
 10
8.19661170951806
 20
2.26856097691336
 11
8.17861170951806
 21
2.26856097691336
 72
     1
 10
8.17861170951806
 20
2.26856097691336
 11
8.17861170951806
 21
2.13856097691336
 72
     2
 10
8.22861170951806
 20
2.13856097691336
 40
0.0499999999999999
 50
180.0
 51
278.8498830984299
 73
     1
 72
     2
 10
8.17861170951806
 20
2.459691791379989
 40
0.3749999999999999
 50
278.8498830984297
 51
351.977013093135
 73
     1
 72
     2
 10
8.48755790131238
 20
2.41614583202913
 40
0.0629999999999999
 50
351.9770130931352
 51
423.2145316218669
 73
     1
 72
     2
 10
8.62861170951806
 20
2.69556097691336
 40
0.25
 50
116.7854683781341
 51
180.0
 73
     0
 72
     1
 10
8.37861170951806
 20
2.69556097691336
 11
8.37861170951806
 21
2.813381564206002
 72
     2
 10
8.328611709518059
 20
2.813381564206002
 40
0.05
 50
0.0
 51
60.16443977681596
 73
     1
 72
     2
 10
8.37861170951806
 20
2.90056097691336
 40
0.0505
 50
119.8355602231842
 51
290.000000000001
 73
     0
 97
        0
 75
     0
 76
     1
 52
0.0
 41
0.03125
 77
     0
 78
     1
 53
0.0
 43
0.0
 44
0.0
 45
0.0
 46
0.00390625
 79
     0
 98
        1
 10
0.0
 20
0.0
  0
HATCH
  5
4F4
330
1F
100
AcDbEntity
  8
0
  6
Continuous
 62
     7
370
     0
100
AcDbHatch
 10
0.0
 20
0.0
 30
0.0
210
0.0
220
0.0
230
1.0
  2
LINE
 70
     0
 71
     0
 91
        1
 92
        0
 93
       18
 72
     2
 10
8.01261170951807
 20
2.813381564206005
 40
0.032
 50
180.0
 51
240.1644397768165
 73
     0
 72
     2
 10
7.96261170951807
 20
2.900560976913364
 40
0.0685
 50
299.8355602231848
 51
470.0000000000002
 73
     1
 72
     1
 10
7.939183329700263
 20
2.964929921437198
 11
7.945339692280124
 21
2.948015454263052
 72
     2
 10
7.96261170951807
 20
2.900560976913364
 40
0.0505
 50
250.0000000000009
 51
420.1644397768166
 73
     0
 72
     2
 10
8.01261170951807
 20
2.813381564206005
 40
0.05
 50
119.835560223184
 51
180.0
 73
     1
 72
     1
 10
7.96261170951807
 20
2.813381564206005
 11
7.96261170951807
 21
2.695560976913363
 72
     2
 10
7.71261170951807
 20
2.695560976913363
 40
0.25
 50
0.0
 51
63.21453162186607
 73
     0
 72
     2
 10
7.853665517723749
 20
2.416145832029132
 40
0.0629999999999999
 50
116.7854683781338
 51
188.0229869068665
 73
     1
 72
     2
 10
8.162611709518071
 20
2.459691791379992
 40
0.3749999999999999
 50
188.0229869068666
 51
261.1501169015717
 73
     1
 72
     2
 10
8.11261170951807
 20
2.138560976913363
 40
0.0499999999999999
 50
261.1501169015718
 51
360.0000000000008
 73
     1
 72
     1
 10
8.162611709518071
 20
2.138560976913363
 11
8.162611709518071
 21
2.268560976913363
 72
     1
 10
8.162611709518071
 20
2.268560976913363
 11
8.14461170951807
 21
2.268560976913363
 72
     1
 10
8.14461170951807
 20
2.268560976913363
 11
8.14461170951807
 21
2.138560976913363
 72
     2
 10
8.11261170951807
 20
2.138560976913363
 40
0.0319999999999999
 50
0.0
 51
98.84988309843003
 73
     0
 72
     2
 10
8.162611709518071
 20
2.459691791379992
 40
0.3569999999999999
 50
98.84988309842923
 51
171.9770130931342
 73
     0
 72
     2
 10
7.853665517723749
 20
2.416145832029132
 40
0.0449999999999999
 50
171.9770130931348
 51
243.2145316218673
 73
     0
 72
     2
 10
7.71261170951807
 20
2.695560976913363
 40
0.268
 50
296.7854683781348
 51
360.0000000000008
 73
     1
 72
     1
 10
7.980611709518071
 20
2.695560976913363
 11
7.980611709518071
 21
2.813381564206005
 97
        0
 75
     0
 76
     1
 52
0.0
 41
0.03125
 77
     0
 78
     1
 53
0.0
 43
0.0
 44
0.0
 45
0.0
 46
0.00390625
 79
     0
 98
        1
 10
0.0
 20
0.0
  0
HATCH
  5
4F5
330
1F
100
AcDbEntity
  8
0
  6
Continuous
 62
     7
370
     0
100
AcDbHatch
 10
0.0
 20
0.0
 30
0.0
210
0.0
220
0.0
230
1.0
  2
ANSI32
 70
     0
 71
     0
 91
        1
 92
        0
 93
       12
 72
     1
 10
7.104861709518064
 20
2.494060976913373
 11
7.104861709514496
 21
4.591340504472427
 72
     2
 10
6.986751473294023
 20
4.591340504472427
 40
0.1181102362204725
 50
0.0
 51
90.0
 73
     1
 72
     1
 10
6.986751473294023
 20
4.7094507406929
 11
5.951861709514496
 21
4.7094507406929
 72
     1
 10
5.951861709514496
 20
4.7094507406929
 11
5.951861709514496
 21
4.681450740692901
 72
     1
 10
5.951861709514496
 20
4.681450740692901
 11
6.986751473294023
 21
4.6814507406929
 72
     2
 10
6.986751473294023
 20
4.591340504472427
 40
0.0901102362204724
 50
270.0000000000008
 51
360.0000000000008
 73
     0
 72
     1
 10
7.076861709514495
 20
4.591340504472427
 11
7.076861709518063
 21
2.494060976913374
 72
     2
 10
7.139361709518064
 20
2.494060976913374
 40
0.0625
 50
180.0
 51
329.2219971557008
 73
     1
 72
     1
 10
7.19305898567736
 20
2.462078911109673
 11
7.544861709518064
 21
3.052748948861938
 72
     1
 10
7.544861709518064
 20
3.052748948861938
 11
7.520805329798699
 21
3.067076914341996
 72
     1
 10
7.520805329798699
 20
3.067076914341996
 11
7.169002605957996
 21
2.476406876589731
 72
     2
 10
7.139361709518064
 20
2.494060976913374
 40
0.0345
 50
30.77800284429982
 51
179.9999999999993
 73
     0
 97
        0
 75
     0
 76
     1
 52
0.0
 41
1.0
 77
     0
 78
     2
 53
45.0
 43
0.0
 44
0.0
 45
-0.2651650429449553
 46
0.2651650429449554
 79
     0
 53
45.0
 43
0.176776695
 44
0.0
 45
-0.2651650429449553
 46
0.2651650429449554
 79
     0
 98
        1
 10
0.0
 20
0.0
  0
HATCH
  5
4F6
330
1F
100
AcDbEntity
  8
0
  6
Continuous
 62
     7
370
     0
100
AcDbHatch
 10
0.0
 20
0.0
 30
0.0
210
0.0
220
0.0
230
1.0
  2
ANSI32
 70
     0
 71
     0
 91
        1
 92
        0
 93
       20
 72
     2
 10
10.47073670951806
 20
10.38793597691337
 40
0.043625
 50
0.0
 51
90.0
 73
     1
 72
     1
 10
10.47073670951806
 20
10.43156097691337
 11
7.120486709518066
 21
10.43156097691337
 72
     2
 10
7.120486709518066
 20
10.38793597691337
 40
0.043625
 50
90.0
 51
180.0
 73
     1
 72
     1
 10
7.076861709518066
 20
10.38793597691337
 11
7.076861709514494
 21
10.02156097691337
 72
     2
 10
6.986751473294023
 20
10.02156097691337
 40
0.0901102362204724
 50
0.0
 51
90.0
 73
     0
 72
     1
 10
6.986751473294023
 20
9.931450740692902
 11
5.951861709514496
 21
9.931450740692902
 72
     1
 10
5.951861709514496
 20
9.931450740692902
 11
5.951861709514496
 21
9.903450740692902
 72
     1
 10
5.951861709514496
 20
9.903450740692902
 11
6.986751473294023
 21
9.903450740692902
 72
     2
 10
6.986751473294023
 20
10.02156097691337
 40
0.1181102362204725
 50
270.0000000000008
 51
360.0000000000008
 73
     1
 72
     1
 10
7.104861709514496
 20
10.02156097691337
 11
7.104861709518066
 21
10.38793597691337
 72
     2
 10
7.120486709518066
 20
10.38793597691337
 40
0.015625
 50
180.0
 51
270.0000000000008
 73
     0
 72
     1
 10
7.120486709518066
 20
10.40356097691338
 11
10.47073670951806
 21
10.40356097691338
 72
     2
 10
10.47073670951806
 20
10.38793597691337
 40
0.015625
 50
270.0000000000008
 51
360.0000000000008
 73
     0
 72
     1
 10
10.48636170951807
 20
10.38793597691337
 11
10.48636170951807
 21
2.494060976913373
 72
     2
 10
10.45186170951806
 20
2.494060976913373
 40
0.0345
 50
0.0
 51
149.2219971557001
 73
     0
 72
     1
 10
10.42222081307813
 20
2.476406876589731
 11
10.07041808923743
 21
3.067076914341996
 72
     1
 10
10.07041808923743
 20
3.067076914341996
 11
10.04636170951807
 21
3.052748948861938
 72
     1
 10
10.04636170951807
 20
3.052748948861938
 11
10.39816443335877
 21
2.462078911109673
 72
     2
 10
10.45186170951806
 20
2.494060976913373
 40
0.0625
 50
210.7780028443004
 51
360.0000000000008
 73
     1
 72
     1
 10
10.51436170951807
 20
2.494060976913373
 11
10.51436170951807
 21
10.38793597691337
 97
        0
 75
     0
 76
     1
 52
0.0
 41
1.0
 77
     0
 78
     2
 53
45.0
 43
0.0
 44
0.0
 45
-0.2651650429449553
 46
0.2651650429449554
 79
     0
 53
45.0
 43
0.176776695
 44
0.0
 45
-0.2651650429449553
 46
0.2651650429449554
 79
     0
 98
        1
 10
0.0
 20
0.0
  0
MTEXT
  5
4F8
330
1F
100
AcDbEntity
  8
FORMAT
100
AcDbMText
 10
5.171969357063175
 20
1.20122043869834
 30
0.0
 40
0.4999999999999999
 41
0.0
 71
     1
 72
     1
  1
ML-37, 2 SLOT, BORDER 2B
  7
SLDTEXTSTYLE0
 73
     1
 44
1.0
  0
TEXT
  5
51F
330
1F
100
AcDbEntity
  8
0
 62
   250
100
AcDbText
 10
7.631934019115128
 20
8.916371497668388
 30
0.0
 40
0.7731154616668553
  1
TITUS
 50
300.7761482323164
100
AcDbText
  0
ENDSEC
  0
SECTION
  2
OBJECTS
  0
DICTIONARY
  5
C
330
0
100
AcDbDictionary
281
     1
  3
ACAD_COLOR
350
6C
  3
ACAD_GROUP
350
D
  3
ACAD_LAYOUT
350
1A
  3
ACAD_MATERIAL
350
6B
  3
ACAD_MLEADERSTYLE
350
550
  3
ACAD_MLINESTYLE
350
17
  3
ACAD_PLOTSETTINGS
350
19
  3
ACAD_PLOTSTYLENAME
350
E
  3
ACAD_SCALELIST
350
99
  3
ACAD_TABLESTYLE
350
92
  3
ACDBHEADERROUNDTRIPXREC
350
567
  3
AcDbVariableDictionary
350
59
  3
DWGPROPS
350
56A
  0
DICTIONARY
  5
565
330
1F
100
AcDbDictionary
280
     1
281
     1
  0
DICTIONARY
  5
6C
102
{ACAD_REACTORS
330
C
102
}
330
C
100
AcDbDictionary
281
     1
  0
DICTIONARY
  5
D
102
{ACAD_REACTORS
330
C
102
}
330
C
100
AcDbDictionary
281
     1
  0
DICTIONARY
  5
1A
102
{ACAD_REACTORS
330
C
102
}
330
C
100
AcDbDictionary
281
     1
  3
Layout1
350
74
  3
Layout2
350
26
  3
Model
350
22
  0
DICTIONARY
  5
6B
102
{ACAD_REACTORS
330
C
102
}
330
C
100
AcDbDictionary
281
     1
  0
DICTIONARY
  5
550
102
{ACAD_REACTORS
330
C
102
}
330
C
100
AcDbDictionary
281
     1
  0
DICTIONARY
  5
17
102
{ACAD_REACTORS
330
C
102
}
330
C
100
AcDbDictionary
281
     1
  3
Standard
350
18
  0
DICTIONARY
  5
19
102
{ACAD_REACTORS
330
C
102
}
330
C
100
AcDbDictionary
281
     1
  0
ACDBDICTIONARYWDFLT
  5
E
102
{ACAD_REACTORS
330
C
102
}
330
C
100
AcDbDictionary
281
     1
  3
Normal
350
F
100
AcDbDictionaryWithDefault
340
F
  0
DICTIONARY
  5
99
102
{ACAD_REACTORS
330
C
102
}
330
C
100
AcDbDictionary
281
     1
  3
A0
350
4FA
  3
A1
350
4FB
  3
A2
350
4FC
  3
A3
350
4FD
  3
A4
350
4FE
  3
A5
350
4FF
  3
A6
350
500
  3
A7
350
501
  3
A8
350
502
  3
A9
350
503
  3
B0
350
504
  3
B1
350
505
  3
B2
350
506
  3
B3
350
507
  3
B4
350
508
  3
B5
350
509
  3
B6
350
50A
  3
B7
350
50B
  3
B8
350
50C
  3
B9
350
50D
  3
C0
350
50E
  3
C1
350
50F
  3
C2
350
510
  3
C3
350
511
  3
C4
350
512
  3
C5
350
513
  3
C6
350
514
  3
C7
350
515
  3
C8
350
516
  3
C9
350
517
  3
D0
350
518
  3
D1
350
519
  3
D2
350
51A
  0
DICTIONARY
  5
92
102
{ACAD_REACTORS
330
C
102
}
330
C
100
AcDbDictionary
281
     1
  0
DICTIONARY
  5
567
102
{ACAD_REACTORS
330
C
102
}
330
C
100
AcDbDictionary
281
     1
  3
COLORDICT
350
568
  3
MATERIALDICT
350
569
  0
DICTIONARY
  5
59
102
{ACAD_REACTORS
330
C
102
}
330
C
100
AcDbDictionary
281
     1
  3
CANNOSCALE
350
566
  3
CTABLESTYLE
350
561
  3
DIMASSOC
350
51C
  3
HIDETEXT
350
562
  0
XRECORD
  5
56A
102
{ACAD_REACTORS
330
C
102
}
330
C
100
AcDbXrecord
280
     1
  1
DWGPROPS COOKIE
  2

  3

  4

  6

  7

  8
nholden
  9

300
=
301
=
302
=
303
=
304
=
305
=
306
=
307
=
308
=
309
=
 40
0.0
 41
2453353.717125822
 42
2455596.915026875
  1

 90
        0
  0
LAYOUT
  5
74
102
{ACAD_REACTORS
330
1A
102
}
330
1A
100
AcDbPlotSettings
  1

  2
none_device
  4
ISO_C5_(229.00_x_162.00_MM)
  6

 40
0.0
 41
0.0
 42
0.0
 43
0.0
 44
229.0
 45
162.0
 46
0.0
 47
0.0
 48
0.0
 49
0.0
140
0.0
141
0.0
142
1.0
143
1.0
 70
   688
 72
     1
 73
     0
 74
     5
  7

 75
    16
147
1.0
148
0.0
149
0.0
100
AcDbLayout
  1
Layout1
 70
     1
 71
     1
 10
0.0
 20
0.0
 11
12.0
 21
9.0
 12
0.0
 22
0.0
 32
0.0
 14
1.000000000000000E+20
 24
1.000000000000000E+20
 34
1.000000000000000E+20
 15
-1.000000000000000E+20
 25
-1.000000000000000E+20
 35
-1.000000000000000E+20
146
0.0
 13
0.0
 23
0.0
 33
0.0
 16
1.0
 26
0.0
 36
0.0
 17
0.0
 27
1.0
 37
0.0
 76
     0
330
73
  0
LAYOUT
  5
26
102
{ACAD_REACTORS
330
1A
102
}
330
1A
100
AcDbPlotSettings
  1

  2
none_device
  4
ISO_C5_(229.00_x_162.00_MM)
  6

 40
0.0
 41
0.0
 42
0.0
 43
0.0
 44
229.0
 45
162.0
 46
0.0
 47
0.0
 48
0.0
 49
0.0
140
0.0
141
0.0
142
1.0
143
1.0
 70
   688
 72
     1
 73
     0
 74
     5
  7

 75
    16
147
1.0
148
0.0
149
0.0
100
AcDbLayout
  1
Layout2
 70
     1
 71
     2
 10
0.0
 20
0.0
 11
0.0
 21
0.0
 12
0.0
 22
0.0
 32
0.0
 14
0.0
 24
0.0
 34
0.0
 15
0.0
 25
0.0
 35
0.0
146
0.0
 13
0.0
 23
0.0
 33
0.0
 16
1.0
 26
0.0
 36
0.0
 17
0.0
 27
1.0
 37
0.0
 76
     0
330
23
  0
LAYOUT
  5
22
102
{ACAD_REACTORS
330
1A
102
}
330
1A
100
AcDbPlotSettings
  1

  2
none_device
  4
ISO_C5_(229.00_x_162.00_MM)
  6

 40
0.0
 41
0.0
 42
0.0
 43
0.0
 44
229.0
 45
162.0
 46
0.0
 47
0.0
 48
0.0
 49
0.0
140
0.0
141
0.0
142
1.0
143
1.0
 70
 11952
 72
     1
 73
     0
 74
     0
  7

 75
    16
147
1.0
148
0.0
149
0.0
100
AcDbLayout
  1
Model
 70
     1
 71
     0
 10
0.0
 20
0.0
 11
17.0
 21
11.0
 12
0.0
 22
0.0
 32
0.0
 14
5.171969357063175
 24
0.6162204386983399
 34
0.0
 15
12.02964435706317
 25
10.43156097691338
 35
0.0
146
0.0
 13
0.0
 23
0.0
 33
0.0
 16
1.0
 26
0.0
 36
0.0
 17
0.0
 27
1.0
 37
0.0
 76
     0
330
1F
331
97
  0
MLINESTYLE
  5
18
102
{ACAD_REACTORS
330
17
102
}
330
17
100
AcDbMlineStyle
  2
Standard
 70
     0
  3

 62
   256
 51
90.0
 52
90.0
 71
     2
 49
0.5
 62
   256
  6
BYLAYER
 49
-0.5
 62
   256
  6
BYLAYER
  0
ACDBPLACEHOLDER
  5
F
102
{ACAD_REACTORS
330
E
102
}
330
E
  0
SCALE
  5
4FA
102
{ACAD_REACTORS
330
99
102
}
330
99
100
AcDbScale
 70
     0
300
1:1
140
1.0
141
1.0
290
     1
  0
SCALE
  5
4FB
102
{ACAD_REACTORS
330
99
102
}
330
99
100
AcDbScale
 70
     0
300
1:2
140
1.0
141
2.0
290
     0
  0
SCALE
  5
4FC
102
{ACAD_REACTORS
330
99
102
}
330
99
100
AcDbScale
 70
     0
300
1:4
140
1.0
141
4.0
290
     0
  0
SCALE
  5
4FD
102
{ACAD_REACTORS
330
99
102
}
330
99
100
AcDbScale
 70
     0
300
1:5
140
1.0
141
5.0
290
     0
  0
SCALE
  5
4FE
102
{ACAD_REACTORS
330
99
102
}
330
99
100
AcDbScale
 70
     0
300
1:8
140
1.0
141
8.0
290
     0
  0
SCALE
  5
4FF
102
{ACAD_REACTORS
330
99
102
}
330
99
100
AcDbScale
 70
     0
300
1:10
140
1.0
141
10.0
290
     0
  0
SCALE
  5
500
102
{ACAD_REACTORS
330
99
102
}
330
99
100
AcDbScale
 70
     0
300
1:16
140
1.0
141
16.0
290
     0
  0
SCALE
  5
501
102
{ACAD_REACTORS
330
99
102
}
330
99
100
AcDbScale
 70
     0
300
1:20
140
1.0
141
20.0
290
     0
  0
SCALE
  5
502
102
{ACAD_REACTORS
330
99
102
}
330
99
100
AcDbScale
 70
     0
300
1:30
140
1.0
141
30.0
290
     0
  0
SCALE
  5
503
102
{ACAD_REACTORS
330
99
102
}
330
99
100
AcDbScale
 70
     0
300
1:40
140
1.0
141
40.0
290
     0
  0
SCALE
  5
504
102
{ACAD_REACTORS
330
99
102
}
330
99
100
AcDbScale
 70
     0
300
1:50
140
1.0
141
50.0
290
     0
  0
SCALE
  5
505
102
{ACAD_REACTORS
330
99
102
}
330
99
100
AcDbScale
 70
     0
300
1:100
140
1.0
141
100.0
290
     0
  0
SCALE
  5
506
102
{ACAD_REACTORS
330
99
102
}
330
99
100
AcDbScale
 70
     0
300
2:1
140
2.0
141
1.0
290
     0
  0
SCALE
  5
507
102
{ACAD_REACTORS
330
99
102
}
330
99
100
AcDbScale
 70
     0
300
4:1
140
4.0
141
1.0
290
     0
  0
SCALE
  5
508
102
{ACAD_REACTORS
330
99
102
}
330
99
100
AcDbScale
 70
     0
300
8:1
140
8.0
141
1.0
290
     0
  0
SCALE
  5
509
102
{ACAD_REACTORS
330
99
102
}
330
99
100
AcDbScale
 70
     0
300
10:1
140
10.0
141
1.0
290
     0
  0
SCALE
  5
50A
102
{ACAD_REACTORS
330
99
102
}
330
99
100
AcDbScale
 70
     0
300
100:1
140
100.0
141
1.0
290
     0
  0
SCALE
  5
50B
102
{ACAD_REACTORS
330
99
102
}
330
99
100
AcDbScale
 70
     0
300
1/128" = 1'-0"
140
0.0078125
141
12.0
290
     0
  0
SCALE
  5
50C
102
{ACAD_REACTORS
330
99
102
}
330
99
100
AcDbScale
 70
     0
300
1/64" = 1'-0"
140
0.015625
141
12.0
290
     0
  0
SCALE
  5
50D
102
{ACAD_REACTORS
330
99
102
}
330
99
100
AcDbScale
 70
     0
300
1/32" = 1'-0"
140
0.03125
141
12.0
290
     0
  0
SCALE
  5
50E
102
{ACAD_REACTORS
330
99
102
}
330
99
100
AcDbScale
 70
     0
300
1/16" = 1'-0"
140
0.0625
141
12.0
290
     0
  0
SCALE
  5
50F
102
{ACAD_REACTORS
330
99
102
}
330
99
100
AcDbScale
 70
     0
300
3/32" = 1'-0"
140
0.09375
141
12.0
290
     0
  0
SCALE
  5
510
102
{ACAD_REACTORS
330
99
102
}
330
99
100
AcDbScale
 70
     0
300
1/8" = 1'-0"
140
0.125
141
12.0
290
     0
  0
SCALE
  5
511
102
{ACAD_REACTORS
330
99
102
}
330
99
100
AcDbScale
 70
     0
300
3/16" = 1'-0"
140
0.1875
141
12.0
290
     0
  0
SCALE
  5
512
102
{ACAD_REACTORS
330
99
102
}
330
99
100
AcDbScale
 70
     0
300
1/4" = 1'-0"
140
0.25
141
12.0
290
     0
  0
SCALE
  5
513
102
{ACAD_REACTORS
330
99
102
}
330
99
100
AcDbScale
 70
     0
300
3/8" = 1'-0"
140
0.375
141
12.0
290
     0
  0
SCALE
  5
514
102
{ACAD_REACTORS
330
99
102
}
330
99
100
AcDbScale
 70
     0
300
1/2" = 1'-0"
140
0.5
141
12.0
290
     0
  0
SCALE
  5
515
102
{ACAD_REACTORS
330
99
102
}
330
99
100
AcDbScale
 70
     0
300
3/4" = 1'-0"
140
0.75
141
12.0
290
     0
  0
SCALE
  5
516
102
{ACAD_REACTORS
330
99
102
}
330
99
100
AcDbScale
 70
     0
300
1" = 1'-0"
140
1.0
141
12.0
290
     0
  0
SCALE
  5
517
102
{ACAD_REACTORS
330
99
102
}
330
99
100
AcDbScale
 70
     0
300
1-1/2" = 1'-0"
140
1.5
141
12.0
290
     0
  0
SCALE
  5
518
102
{ACAD_REACTORS
330
99
102
}
330
99
100
AcDbScale
 70
     0
300
3" = 1'-0"
140
3.0
141
12.0
290
     0
  0
SCALE
  5
519
102
{ACAD_REACTORS
330
99
102
}
330
99
100
AcDbScale
 70
     0
300
6" = 1'-0"
140
6.0
141
12.0
290
     0
  0
SCALE
  5
51A
102
{ACAD_REACTORS
330
99
102
}
330
99
100
AcDbScale
 70
     0
300
1'-0" = 1'-0"
140
12.0
141
12.0
290
     0
  0
XRECORD
  5
568
102
{ACAD_REACTORS
330
567
102
}
330
567
100
AcDbXrecord
280
     1
340
6C
  0
XRECORD
  5
569
102
{ACAD_REACTORS
330
567
102
}
330
567
100
AcDbXrecord
280
     1
340
6B
  0
DICTIONARYVAR
  5
566
102
{ACAD_REACTORS
330
59
102
}
330
59
100
DictionaryVariables
280
     0
  1
1:1
  0
DICTIONARYVAR
  5
561
102
{ACAD_REACTORS
330
59
102
}
330
59
100
DictionaryVariables
280
     0
  1

  0
DICTIONARYVAR
  5
51C
102
{ACAD_REACTORS
330
59
102
}
330
59
100
DictionaryVariables
280
     0
  1
2
  0
DICTIONARYVAR
  5
562
102
{ACAD_REACTORS
330
59
102
}
330
59
100
DictionaryVariables
280
     0
  1
1
  0
ENDSEC
  0
EOF
